Testeagles - Non-comprehendus Chords & Tabs

 

Non-comprehendus Chords & Tabs

Testeagles Chords & Tabs

Version: 2 Type: Bass Tab 0 ratings
1 star 2 stars 3 stars 4 stars 5 stars
comments

Non-comprehendus Bass Tab

Testeagles - Non-Comprehendus

Riff 1:

G-----------------------------------------------------
D-----------------------------------------------------
A-----------------------------------------------------
E--0---0---0------0---0---0---------------------------

Riff 2:

G-----------------------------------------------------
D-----------------------------------------------------
A------3----------------------------------------------
E--0-0---4-1------------------------------------------

Riff 3:

G-----------------------------------------------------
D-----------2---2-------2---2-------2-----------------
A---------------------------------------3-------------
E--0--0-0-0---0---0-0-0---0---0-0-0---0---4-1---------


Riff 4:

G-----------------------------------------------------
D-----------------------------------------------------
A--------------------------------------------3--------
E--0-0--0-0-0--0-0-0--0-0-0--0-0-0--0-0-0--0---4-3-4--

Riff 5:
[ Tab from: http://www.guitartabs.cc/tabs/t/testeagles/non_comprehendus_btab_ver_2.html ]
G-----------------------------------------------------
D-----------------------------------------------------
A-----------------------------------------------------
E--0-3--0-3-4--0-0-3--0-3-4--0-0-3--0-3-4-------------

Riff 6:

G-----------------------------------------------------
D-----------------------------------------------------
A--------------------------------------------3--------
E--0-3--0-3-4--0-0-3--0-3-4--0-0-3--0-3-4--0---4-1----

Riff 7:

G-----------------------------------------------------
D-----------------------------------------------------
A-----------------------------------------------------
E--0-0-0-0-0-0-0-0-0-0-0-0-0-0-0-0-0-0-0-0-0-3-4-4----

Riff 8:

G-----------------------------------------------------
D-----------------------------------------------------
A-----------------------------------------------------
E--0---0---0------------------------------------------

That's all the riffs in the song.  Listen to the song to work out the
order of the riffs and all that.

Tab by James Beecroft
beecroft@iinet.net.au

Comments