Testeagles - Like No Other Chords & Tabs

 

Like No Other Chords & Tabs

Testeagles Chords & Tabs

Version: 2 Type: Bass Tab 0 ratings
1 star 2 stars 3 stars 4 stars 5 stars
comments

Like No Other Bass Tab

Testeagles - Like No Other - Bass
Dropped D tuning

Main Riff

G---------------------------------
D---------------------------------
A---------------------------------
D--0-3-5-6--0-3-5--0-3-5-6--0-3-0-

Other Riff

G---------------------------------------------------
D---------------------------------------------------
A---------------------------------------------------
D--0-0-0-0-1-3-0-0-0-0-1-3-0-0-0-0-1-3-3-3-3-3-3-3-0
[ Tab from: http://www.guitartabs.cc/tabs/t/testeagles/like_no_other_btab_ver_2.html ]
G---------------------------------------------------
D---------------------------------------------------
A---------------------------------------------------
D--0-0-0-0-1-3-0-0-0-0-1-3-0-0-0-0-1-3-3-3-3-4-4-4-0

Variation

G---------------------------------------------------
D---------------------------------------------------
A---------------------------------------------------
D--0-0-0-0-1-3-0-0-0-0-1-3-0-0-0-0-1-3-3-3----------

That's the entire thing.  A really easy song.

Tab by James Beecroft
beecroft@iinet.net.au
Comments