Testament - Urotsukidoji Chords & Tabs

 

Urotsukidoji Chords & Tabs

Testament Chords & Tabs

Version: 1 Type: Bass Tab 0 ratings
1 star 2 stars 3 stars 4 stars 5 stars
comments

Urotsukidoji Bass Tab

UROTSUKIDOJI - Testament - Low

Bass Transcription; Tuning (Low - High): D G C F

 <---(x4)--->
|------------|--------------------------------------------------------------|
|---5---5-5\-|-------------------12-14-12-----------------------------5-----|
|-7---7---7\-|-----7-5---5----------------14-13-13-12\7---------3-5-6-------|
|------------|-0-0-----7---7-0-0------------------------0-0-3-5---------0-2-|
[ Tab from: http://www.guitartabs.cc/tabs/t/testament/urotsukidoji_btab.html ]
|-------------------7---7/9-7---7---------------------------------7---7/9-7-|
|-----------5---5/9---9-------9---10-9-7------5-----------5---5/9---9-------|
|---0-3-5-7---7--------------------------10-7---7-5---5-7---7---------------|
|-3-------------------------------------------------7-----------------------|
         
          <-(x4)>
|--------|-------|-------------------7-------------------------7/9-7---|
|-9-7----|-------|---------5---5-7-9---9-8-7-5---5-----------5-------9-|
|-----10-|-------|---3-5-7---7-----------------7---7\5-5-5-7-----------|
|--------|-6-5-3-|-5---------------------------------------------------|

 <-(x3)> <--(x2)->
|-9-7---|-7^9^7---|-7-9-7-7^9^7---10^12^10----10-12-10-10-10-12-10----10-12-|
|-----9-|-------9-|-------------9----------12----------------------12-------|
|-------|---------|---------------------------------------------------------|
|-------|---------|---------------------------------------------------------|

 <--(x3)->                               <-----(x3)----->
|-7^9^7---|-7-9-------------------------|----------------|
|-------9-|-----0-----------------------|----------------|
|---------|-----------------------------|----------------|
|---------|-------3-0-0-0-0/12-12-12-12-|-0-0-0/12-12-12-|

Mike Reeves 
Comments