Testament - Troubled Dreams Chords & Tabs

 

Troubled Dreams Chords & Tabs

Testament Chords & Tabs

Version: 1 Type: Tab 0 ratings
1 star 2 stars 3 stars 4 stars 5 stars
comments

Troubled Dreams Tab

   
TESTAMENT

Troubled Dreams
From the album: The Ritual (1992)
Lyrics by Chuck Billy, Eric Peterson and Del James
Music by Eric Peterson and Alex Skolnick

Tabbed by Juhani Moilanen
E-mail:amoilane@hotmail.com
Best viewed in 1024x768

**************************************************
* Trust your own ears and send me corrections    *
* if you think there's something that's          *
* not right in this transcription.               *
**************************************************

Tune all strings down  step

Intro:

Gtr. 1
                        ~~~~~                  ~~~~~~~~~~~~~~~~~~~~~~~       
                                ~~~~~~~~~~
|-----------------------------------------|-----------------------------|-------------------------------|------------|
|-----------------------------------------|-----------------------------|-------------------------------|------------|
|-----------------------------------------|-----------------------------|------------------------7------|--9---------|
|----10----9-----7-----9--------------7---|-----------------------------|---10----9----7----9-----------|------------|
|------------------------------10---------|---7-------------------------|---------------------------10--|------------|
|-----------------------------------------|-----------------------------|-------------------------------|------------|
|
|
|                  ~~~  P.M.----|               P.M.         P.M.------|     
              b+1  P.M.-|
|-----------------------------------------|-------------0---------------|-------------------------------|------------|
|-----------------------------------------|-------------0---------------|-------------------------------|------------|
|----2------------------------------------|-------------9---------------|---2---------------------------|------------|
|----2------------------------------------|--2----------9---------------|---2---------------------------|--2---------|
|----0----2--3----------------------------|--2----------7-----7---7-----|---0------2---3----------------|--2---------|
|-----------------3------3------1---------|--0----0-----------0---0--0--|-----------------3----3---1----|--0----/15\-|


  ~~~~~~~~~~~~~~~~~~~~~~~~~~~~~~~~~~~~~~~~~~~~~~~~~~~~~~~~~~~~~~~~~~~~~~~
|---------------------------------------|-------------------------------------|--------------------------------------|
|---17----------------------------------|-------------------------------------|--------------------------------------|
|---------------------------------------|-------------------------------------|--------------------------------------|
|---------------------------------------|-------------------------------------|--------------------------------------|
|---------------------------------------|-------------------------------------|--------------------------------------|
|---------------------------------------|-------------------------------------|--------------------------------------|
|
|                                  P.M.                               P.M.   
                                P.M.
|---------------------------------------|-------------------------------------|--------------------------------------|
|---------------------------------------|-------------------------------------|--------------------------------------|
|-9--X--X--9---X--X---------------------|-9--X--X--9---X--X---5-----------(3)-|-9---X--X--9--X-X---------------------|
|-9--X--X--9---X--X--2---3--------------|-9--X--X--9---X--X---5------------3--|-9---X--X--9--X-X--2--3--4------------|
|-7--X--X--7---X--X--0---1---0h2p0------|-7--X--X--7---X--X---3--2--0------1--|-7---X--X--7--X-X--0--1--2p0---3------|
|-0--X--X--0---X--X------------------1--|-0--X--X--0---X--X-------------3-----|-0---X--X--0--X-X--------------1------|


Gtrs. 1 & 2
           P.M.          P.M.                 P.M.-|    P.M.-|               
        P.M.-|    P.M.-|
|---------------------------------------|-------------------------------------|--------------------------------------|
|---------------------------------------|-------------------------------------|--------------------------------------|
|---------------------------------------|-----------------------2---3--4------|-----------------------5--4-------3---|
|--5---4---------4----3--------2--------|--2---------2----------2---3--4----3-|--2---------2----------5--4----5--3---|
|--3---2p0---5---5----1p0------0----3---|--2---------2----------0---1--2p0--3-|--2---------2----------3--2p0--5--1---|
|------------3-------------2--------1---|--0---0--0--0---0--0---------------1-|--0---0--0--0---0--0-----------3------|


      P.M.-|    P.M.-|                          P.M.          P.M.           
    P.M.-|    P.M.-|
|-------------------------------------|-----------------------------------|-----------------------------------------|
|-------------------------------------|-----------------------------------|-----------------------------------------|
|----------------------2--3--4--------|--5---4-------4---3---------2------|-----------------------2---3---4---------|
|--2---------2---------2--3--4-----3--|--5---4-------4---3---------2---3--|--2---------2----------2---3---4-----3---|
|--2---------2---------0--1--2p0---3--|--3---2p0--5--2---1p0-------0---3--|--2---------2----------0---1---2p0---3---|
|--0---0--0--0---0--0--------------1--|-----------3------------2-------1--|--0---0--0--0---0--0-----------------1---|


      P.M.-|    P.M.-|                      P.M.-|     P.M.-|                
             P.M.         P.M.     P.M.
|-------------------------------------|--------------------------------------|--------------------------------------|
|-------------------------------------|--------------------------------------|--------------------------------------|
|----------------------5---4-------3--|-----------------------2---3--4-------|--5--------------4------------2-------|
|--2---------2---------5---4----5--3--|--2---------2----------2---3--4----3--|--5--------------4------------2-------|
|--2---------2---------3---2p0--5--1--|--2---------2----------0---1--2p0--3--|--3--2h3p2-------2--1p0-------0---3---|
|--0---0--0--0---0--0-----------3-----|--0---0--0--0----0--0--------------1--|-------------3------------2-------1---|


Gtr 1.
                                   P.H.   P.H.                               
                       P.M.-----|
|-----------------|-----------------------------|-----------------------|---12---10-----6-----5---------------------|
|-----------------|-----------------------------|-----------------------|-------------------------------------------|
|-----------------|-----------------------------|-----------------------|----9----7-----3-----2---------------------|
|--(2)------------|-----------------2p0---------|----2------------------|-------------------------------------------|
|--(2)------------|-----------------------2p0---|----2------------------|-------------------------------------------|
|--(0)------------|-----------------------------|----0------------------|---------------------------3--3---5--------|
|
|Gtr 2.                                                  pick sl.            
                        P.M.-------|
|-----------------|-----------------------------|-----------------------|-------------------------------------------|
|-----------------|-----------------------------|-----------------------|-------------------------------------------|
|-----------------|-----------------------------|-----------------------|-------------------------------------------|
|--(2)------------|-----------------2p0---------|----2----X\------------|-------------------------------------------|
|--(2)------------|-----------------------2p0---|----2---------------7--|----5--------------------------------------|
|--(0)------------|-----------------------------|----0------------------|-----------6----5----------3--3---5--5-----|


Verses 1, 2 and 3

1. Troubled       dreams                   of   a        wandering         
nomad

        P.M.--------------------------------------------|       
P.M.----------------|
|--------------------------------------------------------|----------------------------------------------------------|
|--------------------------------------------------------|----------------------------------------------------------|
|--------------------------------------------------------|----------------------------5----4----------3-------------|
|---2----------------------------------------------------|--2-------------------------5----4----5-----3-------------|
|---2----2--2------2-----2--2--2------2---2--2--1--------|--2----2--2--2-----2---2----3----2p0--5-----1-------------|
|---0----0--0------0-----0--0--0------0---0---------3p0--|--0----0--0--0-----0---0--------------3-------------------|

       damned   to   be    all    by         my    -    self

        P.M.--------------------------------------------|       
P.M.-------------------------------------------|
|--------------------------------------------------------|----------------------------------------------------------|
|--------------------------------------------------------|----------------------------------------------------------|
|--------------------------------------------------------|----------------------------------------------------------|
|---2----------------------------------------------------|--2-------------------------------------------------------|
|---2----2--2------2-----2--2--2------2---2--2--1--------|--2----2--2--2-----2---2----------------------------------|
|---0----0--0------0-----0--0--0------0---0---------3p0--|--0----0--0--0-----0---0-------3--3--3--2--2--2--3--3-----|

         I  travelled         far                           following      
bright          stars

        P.M.--------------------------------------------|       
P.M.----------------|
|--------------------------------------------------------|----------------------------------------------------------|
|--------------------------------------------------------|----------------------------------------------------------|
|--------------------------------------------------------|----------------------------5----4----------3-------------|
|---2----------------------------------------------------|--2-------------------------5----4----5-----3-------------|
|---2----2--2------2-----2--2--2------2---2--2--1--------|--2----2--2--2-----2---2----3----2p0--5-----1-------------|
|---0----0--0------0-----0--0--0------0---0---------3p0--|--0----0--0--0-----0---0--------------3-------------------|


         though     the   end   less      desert        sands

|--------------------------------------------------------|-----------------------------------------------------------|
|--------------------------------------------------------|-----------------------------------------------------------|
|--------------------------------------------------------|-----------------------------------------------------------|
|---2----------------------------------------------------|--2--------------------------------------------------------|
|---2----2--2--2-----2--2--2-----2---2----2--1-----------|--2----2--2--2-----2--------2------------------------------|
|---0----0--0--0-----0--0--0-----0---0--------------3p0--|--0----0--0--0-----0--------0------------//--15---\--------|


   Staring   off into   the    sky......
       P.M.         P.M.---|             P.M.-----|
|--------------------------------------------------------|-----------------------------------------------------------|
|--------------------------------------------------------|-----------------------------------------------------------|
|--------------------------------------------------------|--4--------------3----------------------3----------3-------|
|--------------------------------------------------------|--4--------------3----------------------3----------3-------|
|---2---------4/3----2----3-----4---------2------2-------|--2-p-0----------1------------3---3-----1----------1-------|
|---0----1----2/1----0----1-----2---------0------0-------|----------2p0-----------------1---1-----------1------------|
|
|       P.M.        P.M.---|             P.M.-----|
|--------------------------------------------------------|-----------------------------------------------------------|
|--------------------------------------------------------|-----------------------------------------------------------|
|--------------------------------------------------------|--4--------------3----------------------3----------3-------|
|--------------------------------------------------------|--4--------------3----------------------3----------3-------|
|---2---------4/3----2----3-----4---------2------2-------|--2---0----------1------------3---3-----1----------1-------|
|---0----1----2/1----0----1-----2---------0------0-------|----------2--0----------------1---1-----------1------------|


    down            on      my    -    self

       P.M.         P.M.---|             P.M.-----|                          
           P.M.-------------------|
|--------------------------------------------------------|-----------------------------------------------------------|
|--------------------------------------------------------|---------3-------------------------------------------------|
|--------------------------------------------------------|--4------2-------3-----------------------------------------|
|--------------------------------------------------------|--4------0-------3-----------------------------------------|
|---2---------4--3---2----3-----4---------2------2-------|--2--------------1------------1---2---1--------------------|
|---0----1----2--1---0----1-----2---------0------0-------|-------------------------------------------3---2---0-------|
|
|       P.M.        P.M.---|             P.M.-----|
|--------------------------------------------------------|-----------------------------------------------------------|
|--------------------------------------------------------|-----------------------------------------------------------|
|--------------------------------------------------------|---------7-------------------------------------------------|
|--------------------------------------------------------|--9------7-------8------------8------9p8-------------------|
|---2---------4--3---2----3-----4---------2------2-------|--9------5-------8-------------------------10----9h10------|
|---0----1----2--1---0----1-----2---------0------0-------|--7--------------6-----------------------------------------|


    Lonliness      means       my      demise

       P.M.         P.M.---|             P.M.-----|
|--------------------------------------------------------|-----------------------------------------------------------|
|--------------------------------------------------------|-----------------------------------------------------------|
|--------------------------------------------------------|--4--------------3----------------------3----------3-------|
|--------------------------------------------------------|--4--------------3----------------------3----------3-------|
|---2---------4/3----2----3-----4---------2------2-------|--2-p-0----------1------------3---3-----1----------1-------|
|---0----1----2/1----0----1-----2---------0------0-------|----------2p0-----------------1---1-----------1------------|
|
|       P.M.        P.M.---|             P.M.-----|
|--------------------------------------------------------|-----------------------------------------------------------|
|--------------------------------------------------------|-----------------------------------------------------------|
|--------------------------------------------------------|--4--------------3----------------------3----------3-------|
|--------------------------------------------------------|--4--------------3----------------------3----------3-------|
|---2---------4/3----2----3-----4---------2------2-------|--2---0----------1------------3---3-----1----------1-------|
|---0----1----2/1----0----1-----2---------0------0-------|----------2--0----------------1---1-----------1------------|

    Oh,      what      a     nightmare                                    
whoa,        here       we go!

       P.M.         P.M.---|             P.M.-----|
|--------------------------------------------------------|-----------------------------------------------------------|
|--------------------------------------------------------|-----------------7----------------------------5------------|
|--------------------------------------------------------|--4--------------7----------------------------6------------|
|--------------------------------------------------------|--4--------------7----------------------------7------------|
|---2---------4/3----2----3-----4---------2------2-------|--2-p-0----2-----5----------------4-----------4------------|
|---0----1----2/1----0----1-----2---------0------0-------|-----------0-----------------------------------------------|
|
|       P.M.        P.M.---|             P.M.-----|                 P.M.
|--------------------------------------------------------|----------------(2)----------------------------------------|
|--------------------------------------------------------|-----------------3------------------------X---X----2-------|
|--------------------------------------------------------|--4--------------2------------------------X---X----2-------|
|--------------------------------------------------------|--4--------------0------------------------X---X------------|
|---2---------4/3----2----3-----4---------2------2-------|--2-p-0----2---------------------------------------4-------|
|---0----1----2/1----0----1-----2---------0------0-------|-----------0-----------------------------------------------|

___________________________________________________________________________________________________________________
|1. Gtrs. 1 & 2
        P.M.--|        P.M.---|                                  P.M.--|     
     P.M.--|
|--------------------------------------------------------|-----------------------------------------------------------|
|--------------------------------------------------------|----------------------------------1------------------------|
|---------------------------------2----3-----4-----------|----------------------------------0-----4-----0-----3------|
|---2-------------2---------------2----3-----4------3----|---2------------2-----------------------4-----0-----3------|
|---2-------------2---------------0----1-----2p0----3----|---2------------2-----------------3-----2p0---------1------|
|---0----0---0----0------0---0----------------------1----|---0----0---0---0-------0---0-----------------3------------|

        P.M.--|        P.M.---|                                          
P.M.                   P.M.
|--------------------------------------------------------|-----------------------------------------------------------|
|--------------------------------------------------------|-----------------------------------------------------------|
|---------------------------------2----3-----4-----------|---5---4--------------4---------3------------2-------------|
|---2-------------2---------------2----3-----4------3----|---5---4-------(5)----4---------3------------2------3------|
|---2-------------2---------------0----1-----2p0----3----|---3---2p0------5-----2---------1p0----------0------3------|
|---0----0---0----0------0---0----------------------1----|----------------3----------------------2------------1------|

_______________________________________
|2.
                                           And  as   you   soon     re  -  a 
   -   lize
[ Tab from: http://www.guitartabs.cc/tabs/t/testament/troubled_dreams_tab.html ]
|--------------------------------------|------------------------------------|---------------------------------------|
|----10/12--------------11---------10--|-------------8----------------------|---10/12---------11----------10--------|
|--------------------------------------|------------------------------------|---------------------------------------|
|-----7/-9---------------8----------7--|-------------5----------------------|----7/-9----------8-----------7--------|
|--------------------------------------|------------------------------------|---------------------------------------|
|--------------------------------------|------------------------------------|---------------------------------------|
|
| P.M.---|    P.M.-|                     P.M.-|         P.M.----|            
  P.M.---|     P.M.-|
|--------------------------------------|------------------------------------|---------------------------------------|
|--------------------------------------|------------------------------------|---------------------------------------|
|-----------9--------11/12\11-----10---|--------9--(9)\--------12\----------|------------9-------11/12\11------10---|
|-----------9--------11/12\11-----10---|--------9--(9)\--------12\-7h8p7----|------------9-------11/12\11------10---|
|--7--------7---------9/10\-9------8---|--------7--(7)\--------10\-------10-|--7---------7--------9/10\-9-------8---|
|--0--0--0--0--0--0-----------(0)------|--0--0-----------0--0---------------|--0--0--0---0--0--0-----------(0)------|



        The    night's  so black, I feel    blind                            
   Should  I  keep  wan  -  der  - ing

|--------------------------------------|------------------------------------|---------------------------------------|
|---(10)-------------------------------|--10/12-----------11------------10--|--------------8------------------------|
|--------------------------------------|------------------------------------|---------------------------------------|
|----(7)-------------------------------|---7/-9------------8-------------7--|--------------5------------------------|
|--------------------------------------|------------------------------------|---------------------------------------|
|--------------------------------------|------------------------------------|---------------------------------------|
|
|        P.M.-|                           P.M.----|   P.M.-|                 
  P.M.-|           P.M.---|
|--------------------------------------|------------------------------------|---------------------------------------|
|--------------------------------------|------------------------------------|---------------------------------------|
|---(10)-----------9--(9)\-------------|------------9--------11/12\11---10--|---------9---(9)\----------------------|
|---(10)-----------9--(9)\-----8----7--|------------9--------11/12\11---10--|---------9---(9)\--------5--7p5-7p5----|
|----(8)-----------7--(7)\-----8----7--|---7--------7---------9/10\-9----8--|---------7---(7)\----------------------|
|---------0--0--------------0--6--0-5--|---0--0--0--0---0--0----------(0)---|---0--0------------0--0----------------|


                                  on      and   on    and    on?             
There's   just on thing you should know

|--------------------------------------|------------------------------------|---------------------------------------|
|--10/12------------11\10------8---8---|------------------------------------|---------------------------------------|
|--------------------------------------|------------------------------------|---------------------------------------|
|---7/-9-------------8\-7------5---5---|------------------------------------|---------------------------------------|
|--------------------------------------|------------------------------------|---------------------------------------|
|--------------------------------------|------------------------------------|---------------------------------------|
|
|       P.M.-|   P.M.-|                             ~~~~~
|--------------------------------------|------------------------------------|---------------------------------------|
|--------------------------------------|------------------------------------|---------------------------------------|
|-------------9--------11/12\11----2---|------------------------------------|----------9--------------------2-------|
|-------------9--------11/12\11----2---|------------------------------------|----------9--------------------2-------|
|----7--------7---------9/10\-9----0---|----2---3---------------------------|----------7--------------------0-------|
|----0--0--0--0---0--0-----------------|------------3------3----2----0------|----0---------0---0---0---0------------|


        I can't  take    it   no more      Two  wrongs   don't  make it 
right

                 ~~~~~~~                   P.M.----------------------|       
              ~~~~~~~~
|--------------------------------------|------------------------------------|---------------------------------0-----|
|--------------------------------------|------------------------------------|---------------------------------0-----|
|---(2)--------------------------------|---------------------------------2--|---------------------------------9-----|
|---(2)---------------------------2----|---------------------------------2--|---------------------------------9-----|
|---(0)--2--3-------------5---3---2----|---------------------------------0--|-----2--3--------------5---2-----7-----|
|---------------3---------3---1---0----|---0------0---0--0----0-----0-------|-------------3---------3---1-----0-----|

       And in  the  end  you will find       me  a  piece  of     mind

       P.M.------------|  b+1/4                       ~~~~~~~ P.M.----|      
   P.M.--|     P.M.--|
|--(0)---------------------------------|------------------------------------|---------------------------------------|
|--(0)---------------------------------|------------------------------------|---------------------------------------|
|--(9)----------------------------2----|------------------------------------|----------------------2---3--4---------|
|--(9)----------------------------2----|---------------------------------2--|----------2-----------2---3--4------3--|
|--(7)----------------------------0----|----2----3-------------5----3----2--|----------2-----------0---1--2p0----3--|
|--(0)--0--0---0---0---0---3-----------|---------------3-------3----1----0--|----0--0--0-----0--0----------------1--|


         P.M.---|         P.M.--|                                 P.M.---|   
     P.M.---|
|--------------------------------------------------------|----------------------------------------------------------|
|--------------------------------------------------------|----------------------------------------------------------|
|-----------------------------------5-----4----------3---|---------------------------------2-----3---4--------------|
|---2----------------2--------------5-----4-----5----3---|---2--------------2--------------2-----3---4-------3------|
|---2----------------2--------------3-----2p0---5----1---|---2--------------2--------------0-----1---2p0-----3------|
|---0-----0----0-----0-----0---0----------------3--------|---0-----0---0----0------0---0---------------------1------|

                 P.M.                  P.M.                      P.M.---|    
      P.M.--|
|--------------------------------------------------------|----------------------------------------------------------|
|--------------------------------------------------------|----------------------------------------------------------|
|---5-----4---------------4------3-----------2-----------|----------------------------------2----3---4--------------|
|---5-----4-------(5)-----4------3-----------2-------3---|---2--------------2---------------2----3---4-------3------|
|---3-----2p0------5------2------1p0---------0-------3---|---2--------------2---------------0----1---2p0-----3------|
|------------------3--------------------2------------1---|---0-----0---0----0------0---0---------------------1------|

         P.M.---|         P.M.--|                                 P.M.---|   
     P.M.---|
|--------------------------------------------------------|----------------------------------------------------------|
|--------------------------------------------------------|----------------------------------------------------------|
|-----------------------------------5-----4----------3---|---------------------------------2-----3---4--------------|
|---2----------------2--------------5-----4-----5----3---|---2--------------2--------------2-----3---4-------3------|
|---2----------------2--------------3-----2p0---5----1---|---2--------------2--------------0-----1---2p0-----3------|
|---0-----0----0-----0-----0---0----------------3--------|---0-----0---0----0------0---0---------------------1------|

|-------------------------------------------------------------------------------------------------------------------|
|----------------------------------------------------------------------------------------12--14--15--14--12---------|
|------------------------------------------11---12--11----------------------11--12--14------------------------------|
|-------------------------------12---14-----------------14--12--11--12--14------------------------------------------|
|-----------------12---14---15--------------------------------------------------------------------------------------|
|--12---14---15-----------------------------------------------------------------------------------------------------|
|
|                               P.M.                                   P.M.
|-------------------------------------------------------------------------------------------------------------------|
|-------------------------------------------------------------------------------------------------------------------|
|---5--------------4----------------------------4------------3-----------------------2------------------------------|
|---5--------------4------------(5)-------------4------------3-----------------------2------------3-----------------|
|---3--------------2p0-----------5--------------2------------1p0---------------------0------------3-----------------|
|--------------------------------3---------------------------------------2------------------------1-----------------|


Guitar Solo
(Find out the rhythm by yourself)

    b+1                ~~~~~~~              b+       b+      r         b+1 
     r                  ~~~~~~~~~~~~
|------------------------------------------------|------------------------------------------------------------------|
|---15-------15p12---15--------12-----12----14---|----14------(14)p12-----------------------------------------------|
|------------------------------------------------|-----------------------14-----(14)p12---------14--12---------(12)\|
|------------------------------------------------|-----------------------------------------14-----------------------|
|------------------------------------------------|------------------------------------------------------------------|
|------------------------------------------------|------------------------------------------------------------------|

                   \-1/              \-1/                  b+1    r          
                         ~~~~~~~~   b+1
|-------------------------------------------------------------------------------|--------------------------------------|
|--11/12h15p12h15p12h15p12h15p12h15p12h15p12h15p12h15p12------------------------|----------------------------------12--|
|----------------------------------------------------------14----(14)----12-----|-14p12-----12------------------14-----|
|---------------------------------------------------------------------------14--|--------13----14p12-14----(14)--------|
|-------------------------------------------------------------------------------|--------------------------------------|
|-------------------------------------------------------------------------------|--------------------------------------|


             b+1  even+2    b+1   r                          b+1~~~~~~      
                             Sweep-------|
|--12--------15----(15)-----15----(15)---12--------------12---------|----12----------------------------------------12-|
|------12---(15)---(15)------------------------12---15--------15----|--------15p12------------------------------12----|
|-------------------------------------------------------------------|---------------15p14p12------14-12------12-------|
|-------------------------------------------------------------------|-------------------------14--14-12---14----------|
|-------------------------------------------------------------------|-------------------------------------------------|
|-------------------------------------------------------------------|-------------------------------------------------|


|--17--15------------15--12------------12---------------10------------|-----------------------------------------X-----|
|----------17p15-------------15p12---------15p12------------12p10-----|-12-----------------------------------X--------|
|----------------16----------------15------------14p12------------12--|-----15p14p12------------12--------X-----------|
|---------------------------------------------------------------------|---------------14p12--------14\----------------|
|---------------------------------------------------------------------|---------------------14------------------------|
|---------------------------------------------------------------------|-----------------------------------------------|


   b+1           b+      \-1/      b+1                                      
     b+1        ~~~~~~  b+
|--17------------17--------17---|--(17)---15--------------------------15h17---|--17--------(17)-----17--------17------|
|-------------------------------|--------------17p15h17p15-----15h17----------|---------------------------------------|
|-------------------------------|--------------------------16-----------------|---------------------------------------|
|-------------------------------|---------------------------------------------|---------------------------------------|
|-------------------------------|---------------------------------------------|---------------------------------------|
|-------------------------------|---------------------------------------------|---------------------------------------|


                                                                      ub     
              ub             ub
|--(17)---15h17p15\14---------------------------------------------|---------------------------------------------------|
|-----------------------17--15--14--------------------------------|---12--------(12)------11-------------10-----------|
|-----------------------------------16--14--12-------------12h14--|---14--------(14)------13-------------12-----------|
|-----------------------------------------------14--12h14---------|---------------------------------------------------|
|-----------------------------------------------------------------|---------------------------------------------------|
|-----------------------------------------------------------------|---------------------------------------------------|



     even b+2      semi P.H.
                    ~~~~~~~~                                         b+1     
              b+1
|-----------------------------------------------------------------|---------------------------------------------------|
|--(10)---------------------------12--15p13p12-----------------12-|------------------15-------------------------------|
|--(12)------------12--------------------------14p12-----12h14----|--14-------------------14-----14-----12----14------|
|-----------------------------------------------------14----------|---------------------------------------------------|
|-----------------------------------------------------------------|---------------------------------------------------|
|-----------------------------------------------------------------|---------------------------------------------------|

                   ~~~~~~~
|------------------------------------------|--------------------------------------------------------------------------|
|--------12--13----------------------------|--------------------------------------------------------------------------|
|--(14)-----------12------12----10---------|--------------------------------------------------------------------------|
|-------------------------------------14---|---14--12-----------------------------------------------------------------|
|------------------------------------------|-----------14p13--12-------12h13p12----------------12---------------------|
|------------------------------------------|----------------------15--------------15---12h15--------------------------|


                    Semi P.H.                                                
                          Semi P.H.
                    ~~~~~~~~           ~~~~~~                                
                         ~~~~~~~~~
|------------------------------------------|--------------------------------------------------------------------------|
|------------------------------------------|--------------------------------------------------------------------------|
|------------------------------------------|--------------------------------------------------------------------------|
|------------------------------------------|--------------7----------------9----------------10---12---10--------------|
|-------14----15----10--------10--8---7----|----7h9h10---------7/9h10h12-------9/10h12h14-----------------------------|
|------------------------------------------|--------------------------------------------------------------------------|

   ~~~~~              ~~~~            ~~~~~~~  P.H.----------------------|   
                                 ~~~~~~
|------------------------------------------|--------------------------------------|-----------------------------------|
|------------------------------------------|--------------------------------------|----------------------8------------|
|------------------------------------------|--------------------------------------|------------------7-------9--------|
|---(10)----9-----7----9-------------------|---------------------------------10---|---9----7----9---------------------|
|--------------------------10---8----7-----|---7----7---------7----7----7---------|-----------------------------------|
|------------------------------------------|--------------------------------------|-----------------------------------|


~~~~~~~~~~~~~~~~~~~~~~~~~~~~                                                 
                       P.M.--------|
|---------------------|-|-----------------------------|-|--------------------|--12----10----6----5--------------------|
|---------------------|-|-----------------------------|-|--------------------|----------------------------------------|
|---(9)---------------|7|-----------------------------|4|--------------------|---9-----7----3----2--------------------|
|---------------------|8|-----------------------------|4|--------------------|----------------------------------------|
|---------------------|-|-----------------------------|-|--------------------|----------------------------------------|
|---------------------|-|-----------------------------|-|--------------------|-----------------------3--3---5--5------|

                                                                pick sl.     
                       P.M.---------|
|---------------------|-|-----------------------------|-|--------------------|----------------------------------------|
|---------------------|-|-----------------------------|-|--------------------|----------------------------------------|
|---------------------|7|-----------------------------|4|--------------------|----------------------------------------|
|----2----------------|8|---2-----------2--0----------|4|----2-----X---------|----------------------------------------|
|----2----------------|-|---2------------------2--0---|-|----2---------------|--7---5---------------------------------|
|----0----------------|-|---0-------------------------|-|----0---------------|------------6-----5----3--3---5--5------|


Gtrs. 1 & 2

  P.M.----------|       P.M.--|            P.M.              P.M.--|         
    P.M.--|         P.M.--------|
|--------------------------------------------------------|------------------------------------------------------------|
|--------------------------------------------------------|------------------------------------------------------------|
|------------------9-------------11/12\11--------9/10----|------------9---(9)\------------12\-------------------------|
|------------------9-------------11/12\11--------9/10----|------------9---(9)\------------12\----7---8----7p5---------|
|---7--------------7--------------9/10\-9--------7/-8----|------------7---(7)\------------10\-------------------------|
|---0----0----0----0-----0---0---------------0-----------|----0---0--------------0---0--------------------------------|

  P.M.----------|       P.M.--|            P.M.              P.M.--|         
    P.M.--|         P.M.-----------|
|--------------------------------------------------------|------------------------------------------------------------|
|--------------------------------------------------------|------------------------------------------------------------|
|------------------9-------------11/12\11--------9/10----|------------9---(9)\----------------------------------------|
|------------------9-------------11/12\11--------9/10----|------------9---(9)\-------------8--------------------------|
|---7--------------7--------------9/10\-9--------7/-8----|------------7---(7)\-------------8--------------------------|
|---0----0----0----0-----0---0---------------0-----------|----0---0--------------0---0-----6------0---0---0--0--------|


Outro:

|----------------------------------------------------------------------------|
|----------------------------------------------------------------------------|
|----------------------------------------------------------------------------|
|----(2)---------------------------------------------------------------------|
|----(2)---------------------------------------------------------------------|
|----(0)------0--------0--------0-------0--------0--------0--------0---------|
Comments