Testament - Trail Of Tears Chords & Tabs

 

Trail Of Tears Chords & Tabs

Testament Chords & Tabs

Version: 2 Type: Tab 0 ratings
1 star 2 stars 3 stars 4 stars 5 stars
comments

Trail Of Tears Tab

               ______________________________________________
              /  |   ___  ___ ___    /\         ___       |  \
                 |  |_   |__   |    /__\  |\/| |_   |\ |  |
                 |  |___ ___|  |   /    \ |  | |___ | \|  |
                  \                \    /                / 's
                             - Trail Of Tears -
                                 

Intro riff only
by fatal


Clean guitar
               
E-|-------------------------------------------------|
B-|-------------------------------------------------|
G-|----5-------5--------5-----5---------5-----------|       
D-|-------3--------3--------------3--------3--------|
A-|-5--------5--------5-----5--------5--------5-----|
E-|-------------------------------------------------|
[ Tab from: http://www.guitartabs.cc/tabs/t/testament/trail_of_tears_tab_ver_2.html ]
               
E-|-------------------------------------------------|
B-|-------------------------------------------------|
G-|----4-------4--------4------4--------4-----------|
D-|-------3--------3--------------3--------3--------|
A-|--5-------5--------5-----5--------5--------5-----|
E-|-------------------------------------------------|


In the ending they do:

E-|----------3---------------|
B-|--------3--------3--------|
G-|------4-----4----5--------|
D-|----3---------3--3--------|
A-|--5--------------5--------|
E-|--------------------------|
                    .arpeggiated choord


Sorry, its not very much, if any one wants the "volume swell" solo
 after this tell me, ive already figured it out once, i just dont have it right now,


fatal, [fatal@esoterica.pt]
Comments