Testament - Seven Days Of May Chords & Tabs

 

Seven Days Of May Chords & Tabs

Testament Chords & Tabs

Version: 1 Type: Tab 0 ratings
1 star 2 stars 3 stars 4 stars 5 stars
comments

Seven Days Of May Tab

   
Artist:TestAmenT
Title:7 Days of May
Album:Souls of Black
Transcribed by:Frost
Email:frost1000@hotmail.com

.-palm mute
hbr-half bend then release
phbr-pre half bend then release
fbr-full bend then release


          x3                                                        
E---------------|-----------------------------|---------------------
B---------------|-----------------------------|---------------------
G---------------|-----------------------------|---------------------
D---------------|--------------------7-----9--|---------------------
A---6--7--6--\--|--6-----7--7--6-----5-----7--|---------------------
E---4--5--4--\--|--4-----5--5--4-----5-----7--|--0-----0-----0------
    .  .           .     .  .  .                 .     .     .      

                                                                    
E-------------------------------------------------------------------
B-------------------------------------------------------------------
G-------------------------------------------------------------------
D-------------------------------------------------------------------
A-------------------------------------------------------------------
E---0--0-----0-----0--0--0-----0-----0--0--0-----0--0--0-----0------
    .  .     .     .  .  .     .     .  .  .     .  .  .     .      

                                                                    
E---------|---------------------------------------------------------
B---------|---------------------------------------------------------
G---------|---------------------------------------------------------
D---------|---------------------------------------------------------
A---------|--4--5--------------7--------------7-----8--7--5--7------
E---0--0--|--2--3--0-----0--0-----0-----0-----7-----8--7--5--7------
    .  .           .     .  .     .     .           .  .  .         

                                                                    
E---------------------|---------------------------------------------
B---------------------|---------------------------------------------
G---------------------|---------------------------------------------
D---------------------|---------------------------------------------
A---p--5-----5-----7--|---------------------------------------------
E---p--5--7-----------|--0-----0-----0--0--0-----0-----0--0--0------
          .              .     .     .  .  .     .     .  .  .      

                                                                    
E---------------------------------------------|---------------------
B---------------------------------------------|---------------------
G---------------------------------------------|---------------------
D---------------------------------------------|---------------------
A---------------------------------------------|--4--5---------------
E------0-----0--0--0-----0--0--0-----0--0--0--|--2--3--0-----0------
       .     .  .  .     .  .  .     .  .  .           .     .      

                      hbr                                           
E-------------------------------------------------------------------
B-------------------------------------------------------------------
G-------------------------------------------------------------------
D-------------------------------------------------------------------
A------7--------------7^p5/7--9-----7-----5--------5-----5-----5----
E---0-----0-----0-------------7-----5-----3--------3-----3-----3----
    .     .     .             .     .              .     .     .    

                                                                    
E--------------------------------------------------------------|----
B--------------------------------------------------------------|----
G--------------------------------------------------------------|----
D------------------------------------/--6-----5-----3----------|----
A------2-----5--5--2-----3-----3----------------------------7--|----
E------0-----3--3--0-----1-----1-----/--4-----3-----1---/4-----|----
       .     .  .  .                                                

                                                                    
E-----------------------------------------------|-------------------
B-----------------------------------------------|-------------------
G-----------------------------------------------|-------------------
D---------------------------------/--10-----9---|-------------------
A---------------------------------/--11-----10--|-------------------
E---0-----0-----0--0--0-----0-------------------|--0-----0-----0----
    .     .     .  .  .     .                      .     .     .    

                                                          hbr       
E---------------------|---------------------------------------------
B---------------------|---------------------------------------------
G---------------------|---------------------------------------------
D---------------------|---------------------------------------------
A---------------------|--4--5--------------7--------------7^p5------
E---0--0-----0--0--0--|--2--3--0-----0--0-----0-----0---------------
    .  .     .  .  .           .     .  .     .     .               

                                                                    
E-------------------------------------------------------------------
B-------------------------------------------------------------------
G-------------------------------------------------------------------
D-------------------------------------------------------------------
A---/7--9-----7-----5--------5-----5-----5-----2-----5--5--2--------
E-------7-----5-----3--------3-----3-----3-----0-----3--3--0--------
        .     .              .     .     .     .     .  .  .        

                                                                    
E---------------------------------|---------------------------------
B---------------------------------|---------------------------------
G---------------------------------|---------------------------------
D---------------/--6-----5-----3--|--9-----------9------------------
A---3-----3-----------------------|--7-----------7------------------
E---1-----1-----/--4-----3-----1--|--------0-----------0-----0------
                                           .           .     .      

                                                                    
E-------------------------------------------------------------------
B-------------------------------------------------------------------
G-------------------------------------------------------------------
D------------------9-----------8-----------8-----7h8-----7h8p7------
A------------------7-----------7-----------7-----7------------------
E---0--0-----0-----------0-----------0------------------------------
    .  .     .           .           .                              

                                   Gtr.1         Gtr.2              
E-------|-----------------------|-------------|-----------|---------
B-------|-----------------------|-------------|-----------|---------
G-------|-----------------------|-------------|-----------|---------
D---h8--|--9-----------9--------|--11--10--9--|--8--7--6--|--9------
A-------|--7-----------7--------|-------------|-----------|--7------
E-------|--------0-----------0--|-------------|-----------|---------
                 .           .                                      

                                                                    
E-----------------------------------------------|-------------------
B-----------------------------------------------|-------------------
G-----------------------------------------------|-------------------
D------------8-----------8-----7h8-----7h8p7h8--|--6-----------5----
A------------7-----------7-----7----------------|--4-----4-----4----
E------0-----------0----------------------------|-------------------
       .           .                                     .          

                                                                    
E-------------------------------------------------------------------
B-------------------------------------------------------------------
G-------------------------------------------------------------------
D------------------------------5-----------5-----------5-----4------
A------4-----4-----4-----4-----4-----4-----4-----4-----4-----4------
E-------------------------------------------------------------------
       .     .     .     .           .           .                  

                                               Gtr.1       Gtr.2    
E-------------------|-----------------------|-----------|-----------
B-------------------|-----------------------|-----------|-----------
G-------------------|-----------------------|-----------|-----------
D---h5-----4h5p4h5--|--6-----------5--------|--8--7--6--|--6--5-----
A-------------------|--4-----4-----4-----4--|-----------|-----------
E-------------------|-----------------------|-----------|-----------
                             .           .                          

                                                                    
E------|--------------------------------------------------|---------
B------|--------------------------------------------------|---------
G------|--------------------------------------------------|---------
D---4--|--6-----------5-----------------------------------|--9------
A------|--4-----4-----4-----4-----x--x--6-----7-----6--\--|--7------
E------|--------------------------x--x--4-----5-----4--\--|---------
                .           .           .     .                     

                                                                    
E-------------------------------------------------------------------
B-------------------------------------------------------------------
G-------------------------------------------------------------------
D------------9-----------------------------9-----------8------------
A------------7-----------------------------7-----------7------------
E------0-----------0-----0--0--0-----0-----------0-----------0------
       .           .     .  .  .     .           .           .      

                                                         Gtr.1      
E-----------------------------|-----------------------|-------------
B-----------------------------|-----------------------|-------------
G-----------------------------|-----------------------|-------------
D------8-----7h8-----7h8p7h8--|--9-----------9--------|--11--10-----
A------7-----7----------------|--7-----------7--------|-------------
E-----------------------------|--------0-----------0--|-------------
                                       .           .                

          Gtr.2                                                     
E------|-----------|------------------------------------------------
B------|-----------|------------------------------------------------
G------|-----------|------------------------------------------------
D---9--|--8--7--6--|--9-----------8-----------8-----7h8-----7h8-----
A------|-----------|--7-----------7-----------7-----7---------------
E------|-----------|--------0-----------0---------------------------
                            .           .                           

                                                                    
E---------|---------------------------------------------------------
B---------|---------------------------------------------------------
G---------|---------------------------------------------------------
D---p7h8--|--6-----------5-----------------------------6------------
A---------|--4-----4-----4-----4-----4-----4-----4-----4-----4------
E---------|---------------------------------------------------------
                   .           .     .     .     .           .      

                                                                    
E-----------------------------------------|-------------------------
B-----------------------------------------|-------------------------
G-----------------------------------------|-------------------------
D------5-----------5-----4h5-----4h5p4h5--|--6-----------5----------
A------4-----4-----4-----4----------------|--4-----4-----4-----4----
E-----------------------------------------|-------------------------
             .                                     .           .    

       Gtr.1       Gtr.2                                            
E---|-----------|-----------|---------------------------------------
B---|-----------|-----------|---------------------------------------
G---|-----------|-----------|---------------------------------------
D---|--8--7--6--|--6--5--4--|--6-----------5------------------------
A---|-----------|-----------|--4-----4-----4-----4-----x--x--6------
E---|-----------|-----------|--------------------------x--x--4------
                                     .           .           .      

                                                                    
E------------------|------------------------------------------------
B------------------|------------------------------------------------
G------------------|------------------------------------------------
D------------------|------------------------------------------------
A------7-----6--\--|--6-----7-----6--\--------6-----7--7--6---------
E------5-----4--\--|--4-----5-----4--\--------4-----5--5--4---------
       .              .     .                 .     .  .  .         

                                                                    
E------------|------------------------------------------------------
B------------|------------------------------------------------------
G------------|------------------------------------------------------
D---7-----9--|--------------------------------/--10-----9-----------
A---5-----7--|--------------------------------/--11-----10----------
E---5-----7--|--0-----0-----0--0--0-----0----------------------0----
                .     .     .  .  .     .                      .    

                                                                    
E-------------------------------------------------------------------
B-------------------------------------------------------------------
G-------------------------------------------------------------------
D-------------------------------------------------------------------
A------------------------------------4-----5-----------------7------
E------0-----0--0--0-----0--0--0-----2-----3-----0-----0--0---------
       .     .  .  .     .  .  .                 .     .  .         

                                                                    
E--------------------------------------------------|----------------
B--------------------------------------------------|----------------
G--------------------------------------------------|----------------
D--------------------------------------------------|----------------
A---------------7--------8--7--5--7p5-----5-----7--|----------------
E---0-----0----------------------------7-----------|--0-----0-------
    .     .              .  .  .       .              .     .       

                                                                    
E-----------------------------------|-------------------------------
B-----------------------------------|-------------------------------
G-----------------------------------|-------------------------------
D---------------------/--10-----9---|-------------------------------
A---------------------/--11-----10--|-------------------------------
E---0--0--0-----0-------------------|--0-----0-----0--0--0-----0----
    .  .  .     .                      .     .     .  .  .     .    

                                              hbr                   
E---------|---------------------------------------------------------
B---------|---------------------------------------------------------
G---------|---------------------------------------------------------
D---------|---------------------------------------------------------
A---------|--4--5--------------7--------------7^p5/7--9-----7-------
E---0--0--|--2--3--0-----0--0-----0-----0-------------7-----5-------
    .  .           .     .  .     .     .             .     .       

                                                                    
E-------------------------------------------------------------------
B-------------------------------------------------------------------
G-------------------------------------------------------------------
D------------------------------------------------------------6------
A---5--------5-----5-----5-----2-----5--5--2-----3-----3------------
E---3--------3-----3-----3-----0-----3--3--0-----1-----1-----4------
             .     .     .     .     .  .  .                        

                repeat previous w/slight variations                 
E---------------|-----------------------------------|---------------
B---------------|-----------------------------------|---------------
G---------------|-----------------------------------|---------------
D------5-----3--|-----------------------------------|---------------
A---------------|-----------------------------------|--9-----7------
E------3-----1--|-----------------------------------|--7-----5------
                                                       .     .      

                                                                    
E-------------------------------------------------------------------
B-------------------------------------------------------------------
G-------------------------------------------------------------------
D-------------------------------------------------------------------
A------5--------5-----5-----5-----2-----5--5--2-----3-----3---------
E------3--------3-----3-----3-----0-----3--3--0-----1-----1---------
                .     .     .     .     .  .  .                     

                                                                    
E------------------|------------------------------------------------
B------------------|------------------------------------------------
G------------------|------------------------------------------------
D------------------|------------------------------------------------
A---6-----5-----3--|--2--------------------------------------7------
E---4-----3-----1--|--0-----0-----0-----0-----0--0--0-----0--5------
                            .     .     .     .  .  .     .         

                               x3                                   
E---------------------------|---------------------------------------
B---------------------------|---------------------------------------
G---------------------------|---------------------------------------
D---------------------------|---------------------------------------
A------6--\-----3-----/--6--|---------------------------------------
E------4--\-----1-----/--4--|--0-----0-----0-----0-----0--0--0------
                               .     .     .     .     .  .  .      

                                                                    
E------------------------------------|------------------------------
B------------------------------------|------------------------------
G------------------------------------|------------------------------
D------------------------------------|------------------------------
A---------7-----6--\-----3-----/--6--|------------------------------
E------0--5-----4--\-----1-----/--4--|--0-----0-----0-----0---------
       .                                .     .     .     .         

                                                                    
E------------------------------------------|-----------------|------
B------------------------------------------|-----------------|------
G------------------------------------------|-----------------|------
D------------------------------------------|-----------------|------
A------------------7-----6--\-----3-----6--|--2--2--2-----2--|------
E---0--0--0-----0--5-----4--\-----1-----4--|--0--0--0-----0--|------
    .  .  .     .                 .     .     .  .  .     .         

    Gtr.1          Gtr.2                                            
E---------------|--------------|-----------------------------|------
B---------------|--------------|-----------------------------|------
G---------------|--------5--6--|-----------------------------|------
D------5--7--8--|--5--8--------|-----------------------------|------
A---7-----------|--------------|--3-----/--6-----7-----6--\--|------
E---------------|--------------|--1-----/--4-----5-----4--\--|------
                                                                    

                      Gtr.1          Gtr.2                          
E------------------|--------------|--------------|------------------
B------------------|--------------|--------------|------------------
G------------------|--------------|--6--5--------|------------------
D------------------|--8--7--5-----|--------8--5--|------------------
A---2--2--2-----2--|-----------7--|--------------|--/--7-----6------
E---0--0--0-----0--|--------------|--------------|--/--5-----4------
    .  .  .     .                                                   

                                           Gtr.1          Gtr.2     
E---------------------|-----------------|--------------|------------
B---------------------|-----------------|--------------|------------
G---------------------|-----------------|--------------|------------
D---------------------|-----------------|-----5--7--8--|--5--8------
A---\-----3-----/--6--|--2-----2-----2--|--7-----------|------------
E---\-----1-----/--4--|--0-----0-----0--|--------------|------------
                         .     .     .                              

                                                                    
E---------|-----------------------------|-----------------|---------
B---------|-----------------------------|-----------------|---------
G---5--6--|-----------------------------|-----------------|---------
D---------|-----------------------------|-----------------|---------
A---------|--3-----/--6-----7-----6--\--|--2--2--2-----2--|---------
E---------|--1-----/--4-----5-----4--\--|--0--0--0-----0--|---------
                                           .  .  .     .            

    Gtr.1          Gtr.2                                            
E---------------|--------------|-----------------------------|------
B---------------|--------------|-----------------------------|------
G---------------|--6--5--------|-----------------------------|------
D---8--7--5-----|--------8--5--|-----------------------------|------
A------------7--|--------------|--/--7-----6--\-----3-----6--|------
E---------------|--------------|--/--5-----4--\-----1-----4--|------
                                                    .     .         

                                              x3                    
E------------------------------------------|------------------------
B------------------------------------------|------------------------
G------------------------------------------|------------------------
D---4--4--4--4--4--4--4--4--3--3--3--3--6--|--8-----x--x--x--x------
A---2--2--2--2--2--2--2--2--1--1--1--1--4--|--6-----x--x--x--x------
E---2--2--2--2--2--2--2--2--1--1--1--1--4--|------------------------
       .  .  .  .  .  .  .  .  .  .  .                              

                                                                    
E---------------------------|---------------------------------------
B---------------------------|---------------------------------------
G---------------------------|---------------------------------------
D---9--\--8-----x--x--x--x--|--6-----6-----6-----6-----6-----6------
A---7--\--6-----x--x--x--x--|--4-----4-----4-----4-----4-----4------
E---------------------------|---------------------------------------
                                     .     .     .     .     .      

                      x3                                            
E------------------|------------------------------------------------
B------------------|------------------------------------------------
G------------------|------------------------------------------------
D------6--6--6--6--|--8-----x--x--x--x--9--\--8-----x--x--x--x------
A------4--4--4--4--|--6-----x--x--x--x--7--\--6-----x--x--x--x------
E------------------|------------------------------------------------
       .  .  .  .                                                   

                                                                    
E---|--------------------------------------------------|------------
B---|--------------------------------------------------|------------
G---|--------------------------------------------------|------------
D---|--6-----6-----6-----6-----6-----6-----6--6--6--6--|--8---------
A---|--4-----4-----4-----4-----4-----4-----4--4--4--4--|--6---------
E---|--------------------------------------------------|------------
             .     .     .     .     .     .  .  .  .               

                                                                    
E-------------------------------------------------------------------
B-------------------------------------------------------------------
G-------------------------------------------------------------------
D---x--x--x--x--8-----x--x--x--x--8-----x--x--x--x--8-----x--x------
A---x--x--x--x--6-----x--x--x--x--6-----x--x--x--x--6-----x--x------
E-------------------------------------------------------------------
                                                                    

                                                                    
E---------|---------------------------------------------------------
B---------|---------------------------------------------------------
G---------|---------------------------------------------------------
D---x--x--|--6-----x--x--x--x--6-----x--x--x--x--9-----x--x--x------
A---x--x--|--4-----x--x--x--x--4-----x--x--x--x--7-----x--x--x------
E---------|---------------------------------------------------------
                                                                    
[ Tab from: http://www.guitartabs.cc/tabs/t/testament/seven_days_of_may_tab.html ]
                                                                    
E-------------------------------------------------------------------
B-------------------------------------------------------------------
G-------------------------------------------------------------------
D---x--11--\--9-----x--x--x--x--8-----x--x--x--x--8-----x--x--x-----
A---x--9---\--7-----x--x--x--x--6-----x--x--x--x--6-----x--x--x-----
E-------------------------------------------------------------------
                                                                    

                                                                    
E------------------------------------------|------------------------
B------------------------------------------|------------------------
G------------------------------------------|------------------------
D---x--8-----x--x--x--x--8-----x--x--x--x--|------------------------
A---x--6-----x--x--x--x--6-----x--x--x--x--|--6-----x--x--x--x------
E------------------------------------------|--4-----x--x--x--x------
                                                                    

                                                                    
E------------------------------------------------------------|------
B------------------------------------------------------------|------
G------------------------------------------------------------|------
D------------------------------------------------------------|------
A---6--------4-----4-----4-----4-----2-----2-----2--2--2--2--|------
E---4--------2-----2-----2-----2-----0-----0-----0--0--0--0--|------
             .     .     .     .     .     .     .  .  .  .         

                                                                    
E-------------------------------------------------------------------
B-------------------------------------------------------------------
G-------------------------------------------------------------------
D---8-----x--x--x--x--8-----x--x--x--x--8-----x--x--x--x--8---------
A---6-----x--x--x--x--6-----x--x--x--x--6-----x--x--x--x--6---------
E-------------------------------------------------------------------
                                                                    

                                                                    
E-------------------------------------------------------------------
B-------------------------------------------------------------------
G-------------------------------------------------------------------
D---x--x--x--x--6-----x--x--x--x--6-----x--x--x--x--6-----x--x------
A---x--x--x--x--4-----x--x--x--x--4-----x--x--x--x--4-----x--x------
E-------------------------------------------------------------------
                                                                    

                                                                    
E-------------------------------------------------------------------
B-------------------------------------------------------------------
G-------------------------------------------------------------------
D---x--x--6-----x--x--x--x--4-----x--x--x--x--4-----x--x--x--x------
A---x--x--4-----x--x--x--x--2-----x--x--x--x--2-----x--x--x--x------
E-------------------------------------------------------------------
                                                                    

                                                                    
E------------------------|------------------------------------------
B------------------------|------------------------------------------
G------------------------|------------------------------------------
D---4-----x--x--x--x--4--|--3-----3-----3-----3-----3-----3---------
A---2-----x--x--x--x--2--|--1-----1-----1-----1-----1-----1---------
E------------------------|------------------------------------------
                            .     .     .     .     .     .         

                                                                    
E------------------------------------------------------------|------
B------------------------------------------------------------|------
G------------------------------------------------------------|------
D---3-----3-----3--3--3-----3-----3-----3--3--3-----3-----3--|------
A---1-----1-----1--1--1-----1-----1-----1--1--1-----1-----1--|------
E------------------------------------------------------------|------
    .     .     .  .  .     .     .     .  .  .     .     .         

                                                                    
E-------------------------------------------------------------------
B-------------------------------------------------------------------
G-------------------------------------------------------------------
D------------------------------------------------3-----4-----x------
A---3-----x--x--3-----x--x--3-----x--x--3--3-----1-----2-----x------
E---1-----x--x--1-----x--x--1-----x--x--1--1------------------------
                                                                    

                                                                    
E---------------------------------------------------------|---------
B---------------------------------------------------------|---------
G---------------------------------------------------------|---------
D---x--x--x--4-----x--x--x--x--4--------4-----6--------7--|--8------
A---x--x--x--2-----x--x--x--x--2--------2-----4--------5--|--6------
E---------------------------------------2-----4--------5--|---------
                                        .     .        .            

                                                                    
E-------------------------------------------------------------------
B-------------------------------------------------------------------
G-------------------------------------------------------------------
D------x--x--x--x--9--\--8-----x--x--x--x--8-----x--x--x--x--9------
A------x--x--x--x--7--\--6-----x--x--x--x--6-----x--x--x--x--7------
E-------------------------------------------------------------------
                                                                    

                                                                    
E-------------------------------------------------------------------
B-------------------------------------------------------------------
G-------------------------------------------------------------------
D---\--8-----x--x--x--x---------------------------------------------
A---\--6-----x--x--x--x--6-----x--x--x--x--6--------4-----4---------
E------------------------4-----x--x--x--x--4--------2-----2---------
                                                    .     .         

                                                                    
E---------------------------------------|---------------------------
B---------------------------------------|---------------------------
G---------------------------------------|---------------------------
D---------------------------------------|--8-----x--x--x--x--8------
A---4-----4-----2-----2-----2--2--2--2--|--6-----x--x--x--x--6------
E---2-----2-----0-----0-----0--0--0--0--|---------------------------
    .     .     .     .     .  .  .  .                              

                                                                    
E-------------------------------------------------------------------
B-------------------------------------------------------------------
G-------------------------------------------------------------------
D------x--x--x--x--8-----x--x--x--x--8-----x--x--x--x--6-----x------
A------x--x--x--x--6-----x--x--x--x--6-----x--x--x--x--4-----x------
E-------------------------------------------------------------------
                                                                    

                                                                    
E-------------------------------------------------------------------
B-------------------------------------------------------------------
G-------------------------------------------------------------------
D---x--x--x--6-----x--x--x--x--6-----x--x--x--x--6-----x--x--x------
A---x--x--x--4-----x--x--x--x--4-----x--x--x--x--4-----x--x--x------
E-------------------------------------------------------------------
                                                                    

                                                                    
E-------------------------------------------------------------------
B-------------------------------------------------------------------
G-------------------------------------------------------------------
D---x--4-----x--x--x--x--4-----x--x--x--x--4-----x--x--x--x--4------
A---x--2-----x--x--x--x--2-----x--x--x--x--2-----x--x--x--x--2------
E-------------------------------------------------------------------
                                                                    

                                                                    
E---|-----------------------------------------------------|---------
B---|-----------------------------------------------------|---------
G---|-----------------------------------------------------|---------
D---|--3-----3-----3-----3-----3-----3-----3--3--3--3--3--|---------
A---|--1-----1-----1-----1-----1-----1-----1--1--1--1--1--|---------
E---|-----------------------------------------------------|---------
       .     .     .     .     .     .     .  .  .  .               

    Gtr.1    x4       Gtr.2                                         
E------------------|------------------------------------------------
B------------------|------------------------------------------------
G------------------|-----------------------------------------10-----
D------------------|--------------------10------7--10--9------------
A---8-----5--8--7--|--8-----5--8--7---------10----------------------
E------7-----------|-----7------------------------------------------
    .  .  .  .        .  .  .  .        .   .   .  .                

                                           repeat previous          
E---------------------------------------|-----------------|---------
B-------------------13------10--13--12--|-----------------|---------
G------7--10--9---------12--------------|-----------------|---------
D---9-----------------------------------|-----------------|---------
A---------------------------------------|-----------------|---------
E---------------------------------------|-----------------|---------
    .                   .                                           

    end variation     Gtr.1          Gtr.2                          
E------------------|--------------|--------------|------------------
B------------------|--------------|--------------|------------------
G------------------|--------------|--------5--6--|------------------
D------------------|-----5--7--8--|--5--8--------|------------------
A------------------|--7-----------|--------------|--3-----/--6------
E---0--0--0--0--0--|--------------|--------------|--1-----/--4------
    .  .  .  .  .                                                   

                                        Gtr.1          Gtr.2        
E------------------|-----------------|--------------|---------------
B------------------|-----------------|--------------|---------------
G------------------|-----------------|--------------|--6--5---------
D------------------|-----------------|--8--7--5-----|--------8------
A------7-----6--\--|-----------------|-----------7--|---------------
E------5-----4--\--|--0--0--0--0--0--|--------------|---------------
                      .  .  .  .  .                                 

                                                                    
E------|--------------------------------|-----------------|---------
B------|--------------------------------|-----------------|---------
G------|--------------------------------|-----------------|---------
D---5--|--------------------------------|-----------------|---------
A------|--/--7-----6--\-----3-----/--6--|-----------------|---------
E------|--/--5-----4--\-----1-----/--4--|--0--0--0--0--0--|---------
                                           .  .  .  .  .            

    Gtr.1          Gtr.2                                            
E---------------|--------------|-----------------------------|------
B---------------|--------------|-----------------------------|------
G---------------|--------5--6--|-----------------------------|------
D------5--7--8--|--5--8--------|-----------------------------|------
A---7-----------|--------------|--3-----/--6-----7-----6--\--|------
E---------------|--------------|--1-----/--4-----5-----4--\--|------
                                                                    

                      Gtr.1          Gtr.2                          
E------------------|--------------|--------------|------------------
B------------------|--------------|--------------|------------------
G------------------|--------------|--6--5--------|------------------
D------------------|--8--7--5-----|--------8--5--|------------------
A------------------|-----------7--|--------------|--/--7-----6------
E---0--0--0--0--0--|--------------|--------------|--/--5-----4------
    .  .  .  .  .                                                   

                                                                    
E------------------|------------------------------------------------
B------------------|------------------------------------------------
G------------------|------------------------------------------------
D------------------|------------------------------------------------
A---\-----3-----6--|--2-----2-----2-----2-----2-----2--------2------
E---\-----1-----4--|--0-----0-----0-----0-----0-----0--------0------
          .     .     .     .     .     .     .     .        .      

                                                                    
E------------------------------------------------------------|------
B------------------------------------------------------------|------
G------------------------------------------------------------|------
D------------------------------------------------------------|------
A---------2--------2--------2--------2-----------2-----2-----|------
E---------0--------0--------0--------0-----------0-----0-----|------
          .        .        .                    .     .            

    x3                                                              
E---------11----------------------|--------------------------|------
B---9/11--11--9-------------------|-----------------7-----7--|------
G----------------8--11--11--------|-----------6--------9-----|------
D---------------------------6-----|-----6--------9-----------|------
A------------------------------6--|--------9-----------------|------
E---------------------------------|--9-----------------------|------
                                                                    

    x3                                                              
E------------11---------------9--|--------------------------|-------
B--------11--11--9---------9-----|-----------------7-----7--|-------
G---6/8-------------8--11--------|-----------6--------9-----|-------
D--------------------------------|-----6--------9-----------|-------
A--------------------------------|--------9-----------------|-------
E--------------------------------|--9-----------------------|-------
                                                                    

    hbr                           feedback                          
E------------------------------------------|-----------6--7--9------
B---11^--11--------7h9h11-----9p7\6~~~-----|--6--7--9---------------
G------------------------------------------|------------------------
D------------------------------------------|------------------------
A------------------------------------------|------------------------
E------------------------------------------|------------------------
                                                                    

                                                                    
E---7--6-----7--6--------6-----------|--------------6---------------
B---------9--------9--7-----9--7-----|-----6--7--9-----9--7--6------
G---------------------------------8--|--8---------------------------
D------------------------------------|------------------------------
A------------------------------------|------------------------------
E------------------------------------|------------------------------
                                                                    

                                                                    
E------|--------------6--7--6--------6------------------------------
B------|-----6--7--9-----------9--7-----9--7--6--9--7--6-----7------
G---8--|--8-----------------------------------------------8---------
D------|------------------------------------------------------------
A------|------------------------------------------------------------
E------|------------------------------------------------------------
                                                                    

                                                                    
E-------------------------------------------------------------------
B---6---------------------------------------------------------------
G------8--6-----6---------------------------------------------------
D------------9-----9--8--6--9--8--6-----8--6--------6---------------
A------------------------------------9--------9--8-----9--8--6------
E-------------------------------------------------------------------
                                                                    

                       A.H.                                         
E---|---------------------------------------------------------------
B---|---------------------------------------------------------------
G---|--3h6p4p3---------------3h6p4p3----------------6h8-------------
D---|-----------6p4p3-----------------6p4-----3----------8p6--------
A---|------------------6-------------------6------------------9-----
E---|---------------------------------------------------------------
                                                                    

                                   A.H.                             
E-------------------------------------|-----------------------------
B-------------------------------------|-----------------------------
G---------------6h8-------------------|-----------------------------
D--------------------8--8p6-----------|-----------------------------
A---p8p6--8------------------9--8--9--|--------------11-------------
E-------------------------------------|--11--13--14------13--14-----
                                                                    

                                                                    
E-------------------------------------------------------------------
B-------------------------------------------------------------------
G-------------------------------------------------------------------
D-----------------------------------11----------11--13--11--13------
A---11--13--11--13--14--11--13--14------13--14----------------------
E-------------------------------------------------------------------
                                                                    

                                                                    
E-------------------------------------------------------------------
B-------------------------------------------------------------------
G-------------------11----------11--13------11--13--15--13--15------
D---15--11--13--15------13--15----------15--------------------------
A-------------------------------------------------------------------
E-------------------------------------------------------------------
                                                                    

                                                            phbr    
E--------------------------------------13-----15-----16-----15------
B---12----------12--14------12h14--16-------------------------------
G-------13--15----------15------------------------------------------
D-------------------------------------------------------------------
A-------------------------------------------------------------------
E-------------------------------------------------------------------
                                                                    

                                                      phbr          
E---^-----16--|--------------13--15-----16-----18-----18^-----19----
B-------------|----------13-----------------------------------------
G-------------|------13---------------------------------------------
D-------------|--15-------------------------------------------------
A-------------|-----------------------------------------------------
E-------------|-----------------------------------------------------
                                                                    

             fbr            Gtr.1                                   
E------------19^-----18--|--18h21p19p18--16h19p18p16--14h18p16------
B------------------------|------------------------------------------
G------------------------|------------------------------------------
D------------------------|------------------------------------------
A------------------------|------------------------------------------
E------------------------|------------------------------------------
                                                                    

                                                                    
E---p14--13h16p14p13--11h14p13p11-----------------------------------
B----------------------------------14p12p11\9h11h12p11p9------------
G---------------------------------------------------------11p10-----
D-------------------------------------------------------------------
A-------------------------------------------------------------------
E-------------------------------------------------------------------
                                                                    

                                                                    
E-------------------------------------------------------------------
B-------------------------------------------------------------------
G---p8--8h10h11p10p8---------------------------------------11-------
D---------------------11p9p8--8h9h11p9p8----------------------------
A-----------------------------------------11p9p8--9-----------------
E-------------------------------------------------------------------
                                                                    

                                                    Gtr.2           
E------------------------------------------------|--14h18p16p14-----
B------------------------------------------------|------------------
G---------------10-------------------------------|------------------
D---------------------------------/6-------------|------------------
A------8----------------/9p8--6----------9p8--6--|------------------
E------------------------------------------------|------------------
                                                                    

                                                                    
E---13h16p14p13--11h14p13p11--9h13p11p9--7h11p9p7-------------------
B--------------------------------------------------11p9p7\6h7h9-----
G-------------------------------------------------------------------
D-------------------------------------------------------------------
A-------------------------------------------------------------------
E-------------------------------------------------------------------
                                                                    

                                                                    
E-------------------------------------------------------------------
B---p7p6------------------------------------------------------------
G---------8p6p4--4h6h8p6p4---------------------------------3h6------
D---------------------------8p6p4--4h6h8p6p4------------------------
A---------------------------------------------8p6p4--6--------------
E-------------------------------------------------------------------
                                                                    

                                       A.H.                         
E-------------------------------------------------------------------
B-------------------------------------------------------------------
G---p4p3---------------3h6p4p3---------------3h6p4p3----------------
D---------6p4p3-----------------6p4p3-----------------6p4p3---------
A----------------6---------------------6---------------------4------
E-------------------------------------------------------------------
                                                                    

                                                                    
E-------------------------------------------------------------------
B-------------------------------------------------------------------
G------3h6p4p3---------------3h6p4p3--------------------------------
D---------------6p4p3-----------------6p4p3---/4p3------/6-----4----
A----------------------4----------------------------6---------------
E-------------------------------------------------------------------
                                                                    

                                                                    
E----------|--------------------------------------------------------
B----------|------------------------------------------9--11--12-----
G----------|-------------------------------8--10--11----------------
D---p3-----|---------------------8--9--11---------------------------
A-------6--|-----------8--9--11-------------------------------------
E----------|--7/9--11-----------------------------------------------
                                                                    

                                                                    
E---9--11--13/14--|-------------------------------------------------
B-----------------|-------------------------------------------------
G-----------------|-------------------------------------------------
D-----------------|-------------------------------------------------
A-----------------|-------------------------------------------------
E-----------------|-------------------------------------------------
                                                                    



====================================================================
==          Created with a demo version of BUCKET O' TAB          ==
==            tablature creation software for Windows             ==
==                 http://www.his.com/~gse/bucket                 ==
====================================================================
Comments