Testament - Practice What You Preach Chords & Tabs

 

Practice What You Preach Chords & Tabs

Testament Chords & Tabs

Version: 1 Type: Tab 0 ratings
1 star 2 stars 3 stars 4 stars 5 stars
comments

Practice What You Preach Tab

Practice What You Preach from  T e s t A m e n t

Music: Eric Peterson



Part 1 Part 2
G------------------------------|-----------------------------------| 
D------------------------------|*---------------------------------*| 
A----------1-0------1-0--------|*-----1p0------------1p0----------*| 
E--3-2-1-0----3-2-0----3-2-0---|--0-0-----0-0-3--0-0-----3-2-0-1---|

Part 3

G-----------------------------------------------------|
D-----------------------------------------------------|
A-----------------------------------------------------|
E-3-2-0-1-0------3-2-0-1-0----3-6-0-----3-2-0-1-0-----|

Guitar goes
Part 4

D----------------------------------------------------------|
A-------5-5-5-5/7-7\5-5/7-7\5------5-5-5-------------------|
E--0-0--3-3-3-3/5-5\3-3/5-5\3--0-0-3-3-3-3-2-0-1-----------|

Part 5
[ Tab from: http://www.guitartabs.cc/tabs/t/testament/practice_what_you_preach_tab.html ]
G-----------------------------------------------------|
D-----------------------------------------------------|
A-----------------------------------------------------|
E-0-0-3-3-3-3h5-5-5-3h5-5-5--0-0-3-3-3-3-2-0-1--------|

Verses and shortly before verses
G-------------------------------------------------------|
D*------------------------------------------------------|
A*------------------------------------------------------|
E----3-3-6-6-6-6h8-8-8-6h8-8-8-3-3-6-6-6-6-5-3-4--------|

G-------------------------------------------------------|
D------------------------------------------------------*|
A------------------------------------------------------*|
E-0-0-3-3-3-3h5-5-5-3h5-5-5--0-0-3-3-3-3-2-0-6-0-3-6----|

Pre-chorus

G---------------------------|
D*-------------------------*|
A*-----7----5------3p2-1---*|
E--0-0---0-0---0-0----------|

Chorus

G-----------------------|
D*---------------------*|
A*---------------------*|
E---0-0-5-3--0-0-3-2----|

Under solo
Part 3x2
Part 2x4

E--3p2-2-2-3p2-2-2--3p2-2-2-3p2-2-2--5---6

not totaly sure about that

E--3-r-3-r-3-r-3-r-3-r-3-r-3-r-3-|
Comments