Testament - Over The Wall Chords & Tabs

 

Over The Wall Chords & Tabs

Testament Chords & Tabs

Version: 2 Type: Tab 0 ratings
1 star 2 stars 3 stars 4 stars 5 stars
comments

Over The Wall Tab

   
/---------------------------------------------------------------------------
/ The following is the author's own interpretation of the song, to be used -
/ for studying or private use only, removal of any part of this ten line -
/ header is illegal!!!  Removal of the transcribers name or anything -
/ relevant to the transcriber is also illegal, as so is the removal of the -
/ place inwhich the tab was downloaded. Publishing as well as printing of  -
/ the tab is illegal without permission of the transcriber and copyright -
/ owner of the song. Failure to apply to these laws result will in legal -
/ action from the appropriate parties. -
/---------------------------------------------------------------------------

TESTAMENT - OVER THE WALL 2001
From the Album FIRST STRIKE STILL DEADLY
Copyright 2001 SPITFIRE RECORDS

Full Version - OCTOBER 2002

Re-Transcribed/Edited by: Death8699 (Ryan Fanucchi)
Based On Previous Tab by: Jarle Hille Olsen

For Questions, Comments, Newest Version, or Corrections contact
Death8699: at ArghEnemies@aol.com

Check Out Death8699.com, With More Transcriptions On It:
http://www.death8699.com

Check Out Jarle's Web Site, With More Transcriptions On It:
http://www.jarleholsen.com

.  - palm mute  ph  - pinched harmonic
/  - slide up to  ah  - artificial harmonic
\  - slide down to  th  - tap harmonic
~  - vibrato  hr  - natural harmonic
h  - hammer on  b - bend
p  - pull off  Suffixes for bend
t  - tap with finger  f - full bend  h - half bend
"  - tremolo picking  r - release  t - tap bend
X  - percussion mute  p - pick when bent
>  - accented note Prefixes
() - ghost note, sustained note p - pre-bend w - use bar
*  - see comment  d - don't pick start of bend

--Transcriber's Notes--

I have spent the past 6 months on these songs trying to
get them as perfect as possible.  If you think further
corrections are needed, have the updated solos, or a
better version of this song please mail me at ArchEnemies
@aol.com.  I plan on tabbing this entire album, I have
been hard at work making my previous 'FSSD' tabs better.
Enjoy!

--Miscellaneous Notes--

P.M.H. - palm mute heavy
(**) - see comment(s)
(^)  - pause; stacatto
(<>) - pick-up note(s)
Gtr.1  - right channel (Eric Peterson)
Gtr.2  - left  channel (Alex Skolnick)

Tune Gtr to D (D,G,C,F,A,D)

--OVER THE WALL--

 [Rhy.Fig.1]
||-------------------------------|-------------------------------|
||-------------------------------|-------------------------------|
||*------------------------------|-------------------------------|[Gtrs.1&2]
||*------------------------------|-------------------------------|
||--------5-----7-----8-----8--7-|-5__7__5-----7--5--3__5__3--2--|
||--0--0-----0-----0-----0-------|---h-p----8----------h-p-------|
    .  .     .     .     .  .  .            .  .  .



|--------------------------------|-------------------------------||
|--------------------------------|-------------------------------||
|--------------------------------|------------------------------*||[Gtr.1]
|--------------------------------|------------------------------*||
|---------------5-----7-----8----|-8---7---5-------7---5---------||
|--5___0--0--0-----0-----0-----0-|-------------8-----------8---7-||
|    p    .  .     .     .     .   .   .   .   .   .   .   .   . ||
|                                                                ||
|                                                                ||
|--------------------------------|-------------------------------||
|--------------------------------|-------------------------------||
|--------------------------------|------------------------------*||[Gtr.2]
|--------------------------------|-7---5-----------5------------*||
|---------------5-----7-----8----|---------8---7-------8---7---5-||
|--5___0--0--0-----0-----0-----0-|-------------------------------||
     p    .  .     .     .     .   .   .   .   .   .   .   .   .


 [Rhy.Fig.1a]
||-------------------------------|-------------------------------|
||-------------------------------|-------------------------------|
||*------------------------------|-------------------------------|[Gtr.1]
||*------------------------------|-------------------------------|
||--------------5-----7-----8----|-8--7--5-----7--5--------5-----|
||--5___0-0--0-----0-----0-----0-|----------8--------8--7-----8--|
||    p   .  .     .     .     .   .  .  .  .  .  .  .  .  .  .  |
||                                                               |
||                                                               |
||-------------------------------|-------------------------------|
||-------------------------------|-------------------------------|
||-------------------------------|-------------------------------|[Gtr.2]
||-------------------------------|-7--5--------5-----------------|
||--------------5-----7-----8----|-------8--7-----8--7--5--8--7--|
||--5___0-0--0-----0-----0-----0-|-------------------------------|
      p   .  .     .     .     .   .  .  .  .  .  .  .  .  .  .




|--------------------------------|-------------------------------||
|--------------------------------|-------------------------------||
|--------------------------------|------------------------------*||[Gtr.1]
|--------------------------------|------------------------------*||
|--------------------3-----------|-2-----------0-----------------||
|--7--5--8--7--5--3-----7--5--3--|----5--3--2-----3--2--0-/__X__\||
|  .  .  .  .  .  .  .  .  .  .    .  .  .  .  .  .  .  .(Slides)||
|                                                                ||
|                                                                ||
|--------------------------------|-------------------------------||
|--------------------------------|-------------------------------||
|--------------------------------|------------------------------*||[Gtr.2]
|--------------------2-----------|-------------0-------------<2>*||
|--5-----7--5-----------5--3--2--|-5--3--2--------3--2--0----<2>-||
|-----8--------8--7--------------|----------5--------------3-<0>-||
   .  .  .  .  .  .  .  .  .  .    .  .  .  .  .  .  .  .  .


[Fill 1]
|--------------------------------|-------------------------------|
|--------------------------------|-------------------------------|
|--------------------------------|-------------%-----------------|[Gtr.2]
|--(2)---------------------------|-------------------------------|
|--(2)---------------------------|-------------------------------|
|--(0)---------------------------|-------------------------------|



 [Rhy.Fig.2]
||-----------------------------------------------------------------|
||-----------------------------------------------------------------|
||*----------------------------------------------------------------|[Gtr.1]
||*-8/9------------9/10------------10\9-------------9\8------------|
||--6/7------------7/8--------------8\7-------------7\6------------|
||--sl----0--0--0--sl-----0--0--0----sl---0--0--0----sl---0--0--0--|
||        .  .  .         .  .  .         .  .  .         .  .  .  |
||                                                                 |
||                                                                 |
||-----------------------------------------------------------------|
||-----------------------------------------------------------------|
||-----------------------------------------------------------------|[Gtr.2]
||--(2)------------------------------------------------------------|
||--(2)------------------------------------------------------------|
||--(0)------------------------------------------------------------|



||-----------------------------------------------------------------||
||-----------------------------------------------------------------||
||*---------------------------------------------------------------*||[Gtr.1]
||*-8/9------------9/10------------10\9-------------9\8-----------*||
||--6/7------------7/8--------------8\7-------------7\6------------||
||--sl----0--0--0--sl-----0--0--0----sl---0--0--0----sl---0--0--0--||
||        .  .  .         .  .  .         .  .  .         .  .  .  ||
||                                                                 ||
||                                                                 ||
||-----------------------------------------------------------------||
||-----------------------------------------------------------------||
||-----------------------------------------------------------------||[Gtr.2]
||--(2)------------------------------------------------------------||
||--(2)------------------------------------------------------------||
||--(0)------------------------------------------------------------||


[Fill 2]
|-->-----------------------------|->-------------------------------|
|-->-----------------------------|->-------------------------------|
|--9-----------------------------|-8-------------------------------|[Gtrs.1&2]
|--9-----------------------------|-8-------------------------------|
|--7-----------------------------|-6-------------------------------|
|--7-----------------------------|-6-------------------------------|



[Rhy.Fig.3]
|------------------------------------------------------------------|
|------------------------------------------------------------------|
|------------------------------------------------------------------|[Gtr.1]
|------------------------------------------------------------------|
|--7~---------------8~---------------10~--------------8-----<7>----|
|-------0---0---0--------0---0---0--------0---0---0----------------|
|       .   .   .        .   .   .        .   .   .                |
|                                                                  |
|                                                                  |
|------------------------------------------------------------------|
|------------------------------------------------------------------|
|--9---------------(9)---------------(9)--------------(9)----------|[Gtr.2]
|--9---------------(9)---------------(9)--------------(9)----------|
|--7---------------(7)---------------(7)--------------(7)----------|
|------------------------------------------------------------------|




|------------------------------------------------------------------|
|------------------------------------------------------------------|
|------------------------------------------------------------------|[Gtr.1]
|------------------------------------------------------------------|
|--7~---------------8~--------------/10~--------------8-----<7>----|
|-------5---5---5--------5---5---5-sl-----5---5---5----------------|
|       .   .   .        .   .   .        .   .   .                |
|                                                                  |
|                                                                  |
|------------------------------------------------------------------|
|------------------------------------------------------------------|
|--10--------------(10)-------------(10)-------------(10)----------|[Gtr.2]
|--10--------------(10)-------------(10)-------------(10)----------|
|--8---------------(8)--------------(8)--------------(8)-----------|
|------------------------------------------------------------------|




|------------------------------------------------------------------|
|------------------------------------------------------------------|
|------------------------------------------------------------------|[Gtr.1]
|------------------------------------------------------------------|
|--7~---------------8~---------------7~---------------8~----<7>----|
|-------6---6---6--------6---6---6--------6---6---6----------------|
|       .   .   .        .   .   .        .   .   .                |
|                                                                  |
|                                                                  |
|------------------------------------------------------------------|
|------------------------------------------------------------------|
|--11--------------(11)-------------(11)-------------(11)----------|[Gtr.2]
|--11--------------(11)-------------(11)-------------(11)----------|
|--9---------------(9)--------------(9)--------------(9)-----------|
|------------------------------------------------------------------|




|------------------------------------------------------------------|
|------------------------------------------------------------------|
|------------------------------------------------------------------|[Gtr.1]
|------------------------------------------------------------------|
|--7~---------------8~--------------/10~--------------8-----<7>----|
|-------5---5---5--------5---5---5-sl-----5---5---5----------------|
|       .   .   .        .   .   .        .   .   .                |
|                                                                  |
|                                                                  |
|------------------------------------------------------------------|
|------------------------------------------------------------------|
|--10--------------(10)-------------(10)-------------(10)----------|[Gtr.2]
|--10--------------(10)-------------(10)-------------(10)-/__X__\--|
|--8---------------(8)--------------(8)--------------(8)--/__X__\--|
|---------------------------------------------------------/__X__\--|
                                                       (Pick Slides)




|------------------------------------------------------------------|
|------------------------------------------------------------------|
|------------------------------------------------------------------|[Gtr.1]
|------------------------------------------------------------------|
|--7~---------------8~---------------10~--------------8-----<7>----|
|-------0---0---0--------0---0---0--------0---0---0----------------|
|       .   .   .        .   .   .        .   .   .                |
|                                                                  |
|                                                                  |
|------------------------------------------------------------------|
|------------------------------------------------------------------|
|--9----------------7----------------5----------------4------------|[Gtr.2]
|--9----------------7----------------5----------------4------------|
|--7----------------5----------------3----------------2------------|
|------------------------------------------------------------------|




|------------------->--------------->------------------------------|
|------------------->--------------->------------------------------|
|------------------->--------------->------------------------------|[Gtr.1]
|-------------------5---------------4------------------------------|
|--7----------------5---------------4------------------------------|
|-----12\-----------3---------------2------------------------------|
|       sl                                                         |
|                                                                  |
|                                                                  |
|------------------->--------------->------------------------------|
|------------------->--------------->------------------------------|
|------------------->--------------->------------------------------|[Gtr.2]
|--2----------------5---------------4------------------------------|
|--2----------------5---------------4------------------------------|
|--0----------------3---------------2------------------------------|


 [Rhy.Fig.4]
||------------------------------------|------------------------------------||
||------------------------------------|------------------------------------||
||*-----------------------------------|------------------------------------||[Gtrs.1&2]
||*-----------------------------------|------------------------------------||
||--2---2---2-2-2-2-2---2---2---2-6\5-|-2---2---2-2-2-2-2---2---2---2-4\3--||
||--0---0---0-0-0-0-0---0---0---0-4\3-|-0---0---0-0-0-0-0---0---0---0-2\1--||
||  .   .   . . . . .   .   .   .  sl   .   .   . . . . .   .   .   .  sl  ||
||                                                                         ||
||                                                                         ||
||                                                                         ||
||------------------------------------|------------------------------------||
||------------------------------------|------------------------------------||
||------------------------------------|-----------------------------------*||[Gtrs.1&2]
||--------------------------------4\3-|-----------------------3/4---------*||
||--2---2---2-2-2-2-2---2---2---2-2\1-|---------6\5-----------1/2----------||
||--0---0---0-0-0-0-0---0---0---0--sl-|-0---0---4\3---0---0---sl-----------||
    .   .   . . . . .   .   .   .       .   .    sl   .   .


[Rhy.Fig.5]
|--------------------------------------|-------------------------------------|
|--------------------------------------|-------------------------------------|
|--------------------------------------|-----------------------3\2-0---------|[Gtrs.1&2]
|--------------3\2-----3\2-----0---2---|-----------2---0---2---3\2-0----2/3--|
|--2--2--2--2--3\2-----3\2-----0---2---|-2--2--2---2---0---2----sl------2/3--|
|--0--0--0--0---sl--0---sl--0----------|-0--0--0---------------------0---sl--|
|     .  .  .       .       .            .  .  .                     .       |
|                                                                            |
|                                                                            |
|--------------------------------------|-------------------------------------|
|--------------------------------------|-------------------------------------|
|--------------------------------------|-------------------------------------|[Gtrs.1&2]
|--------------3\2-----3\2-----0---2---|-------------------------3-----------|
|--2--2--2--2--3\2-----3\2-----0---2---|-2---5-5-4---2---4---5---1--5--4--5--|
|--0--0--0--0---sl--0---sl--0----------|-0---3-3-2---0---2---3------3--2--3--|
      .  .  .       .       .            .   . . .   .   .   .      .  .  .

[ Tab from: http://www.guitartabs.cc/tabs/t/testament/over_the_wall_tab_ver_2.html ]
[Fill 3]
|------------------------------------|------------------------------------|
|------------------------------------|------------------------------------|
|------------------------------------|-5------5---------------------------|[Gtrs.1&2]
|------------------------------------|-5------5------5------5-------------|
|--------------5-------7-------8-----|-3------3------5------5-------------|
|--0---0---0-------0-------0-------0-|--------^------3------3-------------|
   .   .   .       .       .       .                        ^


 [Rhy.Fig.6] (P.M.H. throughout!)
||----------------------------------|----------------------------------||
||----------------------------------|----------------------------------||
||*---------------------3---2---0---|-------------------------2---3----||[Gtrs.1&2]
||*---------2---0---2---3---2---0---|-------------2---0---2---2---3----||
||--2---2---2---0---2---------------|-2---2---2---2---0---2------------||
||--0---0---------------------------|-0---0---0------------------------||
||  .   .   .   .   .   .   .   .     .   .   .   .   .   .   .   .    ||
||                                                                     ||
||                                                                     ||
||----------------------------------|----------------------------------||
||----------------------------------|----------------------------------||
||----------------------3---2---0---|---------------------------------*||[Gtrs.1&2]
||----------2---0---2---3---2---0---|---------------------3-----------*||
||--2---2---2---0---2---------------|-5---5-5-4--2--4--5--1--5--4--5---||
||--0---0---------------------------|-3---3-3-2--0--2--3-----3--2--3---||
    .   .   .   .   .   .   .   .     .   . . .  .  .  .     .  .  .


 [Rhy.Fig.7]
||-->------------------------------>-|-----------------------------------||
||-->------------------------------>-|-----------------------------------||
||*->------------------------------>-|-_/13/14--_/17\14---13/14_\--------||[Gtrs.1&2]
||*-2--------------3-------3-------2-|-----------------------------------||
||--2--------------3-------3-------2-|-_/11/12--_/15\12---11/12_\--------||
||--0--------------1-------1-------0-|-----------------------------------||
||                                     ----------Slides----------        ||
||                                                                       ||
||                                                                       ||
||-->------------------------------>-|-----------------------------------||
||-->------------------------------>-|-----------------------------------||
||--9--------------10------10------9-|-_/9/10-_/13\10---9/10____\-------*||[Gtrs.1&2]
||--9--------------10------10------9-|----------------------------------*||
||--7--------------8-------8-------7-|-_/7/8--_/11\8----7/8_____\--------||
||--0------------------------------0-|-----------------------------------||
                                       ----------Slides----------


 [Rhy.Fig.7a]                                 sim.
||----------------------------------|-------------------------------------||
||----------------------------------|-------------------------------------||
||*->-------------------------------|---------_/13/14--_/17\14---13/14_\--||[Gtrs.1&2]
||*-2---2---2---2---2---3------3----|-2---2-------------------------------||
||--2---2---2---2---2---3------3----|-2---2---_/11/12--_/15\12---11/12_\--||
||--0---0---0---0---0---1------1----|-0---0-------------------------------||
||      .   .   .   .   ^             .   .                               ||
||                                                                        ||
||                                                                        ||
||----------------------------------|-------------------------------------||
||----------------------------------|-------------------------------------||
||-->-------------------------------|---------_/9/10-_/13\10---9/10____\-*||[Gtrs.1&2]
||--2---2---2---2---2---3------3----|-2---2------------------------------*||
||--2---2---2---2---2---3------3----|-2---2---_/7/8--_/11\8----7/8_____\--||
||--0---0---0---0---0---1------1----|-0---0-------------------------------||
        .   .   .   .   ^             .   .




|-----------------------------------|-------------------------------------||
|-----------------------------------|-------------------------------------||
|-->--------------------------------|---------_/13/14--_/17\14---13/14_\--||[Gtrs.1&2]
|--2---2---2---2---2---3------3-----|-2---2-------------------------------||
|--2---2---2---2---2---3------3-----|-2---2---_/11/12--_/15\12---11/12_\--||
|--0---0---0---0---0---1------1-----|-0---0-------------------------------||
|      .   .   .   .   ^              .   .                               ||
|                                                                         ||
|                                                                         ||
|-----------------------------------|-------------------------------------||
|-----------------------------------|-------------------------------------||
|------------------------------3----|------------------------------------*||[Gtrs.1&2]
|--2------5------4------5------3----|-5------4------5--------------------*||
|--2------5------4------5------1----|-5------4------5---------------------||
|--0------3------2------3-----------|-3------2------3---------------------||
   .      .      .      .             .      .      .


[Guitar Solo] (Gtr.3)
|--------------------------------------------------------------------|
|------------9-------------------9-----------------------------------|
|--9~---9_10---10-9_10-9~---9_10---1097--7---------------------------|
|--------h---------h---------h---------10-10971097--7----------------|
|-------------------------------------------------10-10871087--7~----|
|------------------------------------------------------------10------|




|--------12-------12-------12-------12-------12-------12~------------|
|--------|--------|--------|--------|--------|--------|--------------|
|--9-9-9-|--9-9-9-|--9-9-9-|--9-9-9-|--9-9-9-|--9-9-9-|--------------|
|--|_|_|_|--|_|_|_|--|_|_|_|--|_|_|_|--|_|_|_|--|_|_|_|--------------|
|--------------------------------------------------------------------|
|--------------------------------------------------------------------|




|--10-12-12_16_12----12-12_16_12----12-12_16_12----12-12_16_12----12-|
|----------h--p---15------h--p---15------h--p---15------h--p---15----|
|--------------------------------------------------------------------|
|--------------------------------------------------------------------|
|--------------------------------------------------------------------|
|--------------------------------------------------------------------|




|--------------------------------------------------------------------|
|--15fb~_________________________r-----------------------------------|
|------------------------------------10~-----9~----------------------|
|---------------------------------------------------11~--------------|
|--------------------------------------------------------------------|
|--------------------------------------------------------------------|


 [Melody #1]
||--10-------12-------13-------12------|--------------------------------------||
||-----10~------10~------10~------10~--|--------------------------------------||
||*------------------------------------|------------------%-------------------||
||*------------------------------------|--------------------------------------||
||-------------------------------------|--------------------------------------||
||-------------------------------------|--------------------------------------||
||                                                                            ||
||                                                                            ||
||(Melody con't)                                                              ||
||--10-12-13-12----10-12-9-10~---------|--------------------------------------||
||--------------10---------------------|--------------------------------------||
||-------------------------------------|-10-9-7-9-7--------------------------*||
||-------------------------------------|------------10-8-7-------------------*||
||-------------------------------------|-------------------10-----------------||
||-------------------------------------|--------------------------------------||



(Solo con't)
|-------------------------10-10---10---|-10-----13_10----10---12fb---------10-|
|--13fb---13fb---10----10----13fb-13fb-|-13fb-----p---13-13fb-----------------|
|-------------------12-----------------|--------------------------------------|
|--------------------------------------|--------------------------------------|
|--------------------------------------|--------------------------------------|
|--------------------------------------|--------------------------------------|




|--12_10----10-------------------------|--------------------------------------|
|----p---13----13-10-13_10-------------|--------------------------------------|
|----------------------p---12---12--10-|-12~---9109797--7---------------------|
|--------------------------------------|--------------10-108108787--7---------|
|--------------------------------------|--------------------------10-108108---|
|--------------------------------------|-----------------------------------10-|




                                                       p         p     p
|--------------------------------------|-1713------131713171717181715171513---|
|--------------------------------------|-----15--15---------------------------|
|--------------------------------------|-------14-----------------------------|
|--------7-----7------8_7_5-7~---------|--------------------------------------|
|--810-----5-5---5-5---p-p-------------|--------------------------------------|
|--------------------------------------|--------------------------------------|




     p     p
|--1513121312----p-----p----p----------|--------------------------------------|
|------------1113111011108108\6--------|--------------------------------------|
|----------------------------sl7fb+1/2-|-7~-----------------------------------|
|--------------------------------------|--------------------------------------|
|--------------------------------------|--------------------------------------|
|--------------------------------------|--------------------------------------|




           h p         h p                 p         h p
|--------101310------101410------12----|-1512------121612---20fb--------------|
|------10----------10----------12------|---------12---------------------------|
|----10----------11----------12--------|-------13-----------------------------|
|--12----------12----------14----------|-----14-------------------------------|
|--------------------------------------|--------------------------------------|
|--------------------------------------|--------------------------------------|




               h p
|------------172217--h-p---------------|
|----------18------182218--------------|
|--------19--------------19~-----------|
|------19------------------------------|
|--1720--------------------------------|
|---h----------------------------------|


[Fill 4]
|------------------|------------------|
|------------------|------------------|
|-->---------------|->-------->-------|[Gtrs.1&2]
|--3---------------|-5--------7-------|
|--1---------------|-3--------4-------|
|------------------|------------------|


 [Rhy.Fig.8]
||--------------------------------------------------------------------||
||--------------------------------------------------------------------||
||*-------------------------------------------------------------------||[Gtrs.1&2]
||*-7-------7-------7-------7--5--3-------3-------3-------3-------5---||
||--5-5-5-5-5-5-5-5-5-5-5-5-5--3--1-1-1-1-1-1-1-1-1-1-1-1-1-1-1-1-3-3-||
||----|_|_|---|_|_|---|_|_|---------|_|_|---|_|_|---|_|_|---|_|_|---|_||
||      3       3       3             3       3       3       3       ||
||                                                                    ||
||                                                                    ||
||--------------------------------------------------------------------||
||--------------------------------------------------------------------||
||-------------------------------------------------------------------*||[Gtrs.1&2]
||------5-------7-------7-------7-------7-------7-------7------------*||
||--3-3-3-3-3-3-4-4-4-4-4-4-4-4-5-5-5-5-5-5-5-5-5-5-5-5-5-5"---%---%--||
||-_|_|---|_|_|---|_|_|---|_|_|---|_|_|---|_|_|---|_|_|---------------||
    3       3       3       3       3       3       3


[Fill 5]
|---------------------------------|---------------------------------|
|---------------------------------|---------------------------------|
|-->------>------->---------------|->----->---->---->----(Segue)----|[Gtrs.1&2]
|--7----5-3----3--5----5--7--7__\-|-7----/7----8----3---------------|
|--5----3-1----1--3----3--4--4__\-|-5----/7----8----3---------------|
|-------------------------------sl|-5----/5----6----1---------------|
        .      .       .                sl


 [Rhy.Fig.9]
||------------------------------------|------------------------------------|
||------------------------------------|------------------------------------|
||*----------------------___ ___ ___--|------------------------------------|[Gtr.1]
||*-2-----------2-------2   3   2   0-|---------2-------2------------------|
||--2-----------2-------2___3___2___0-|---------2-------2------------------|
||------0---0-------0-----h---p---p---|-0---0-------0-------0---0----------|
||      .   .       .                   .   .       .       .   .          |
||                                                                         |
||                                                                         |
||------------------------------------|------------------------------------|
||------------------------------------|------------------------------------|
||------------------------------------|------------------------------------|[Gtr.2]
||--2---------------------------------|------------------------------------|
||--2---------------------------------|------------------------------------|
||--0---------------------------------|------------------------------------|




|-------------------------------------|------------------------------------|
|-------------------------------------|------------------------------------|
|---3\2---0---------------------------|--___ ___ ___-----------------------|[Gtr.1]
|---3\2---0---2-----------2-----------|-2   3   2   0----------------------|
|----sl-------2-----------2-----------|-2___3___2___0---2---5-5-4---2------|
|-----------------0---0-------0-------|---h---p---p-----0---3-3-2---0------|
|                .   .       .                         .   . . .   .       |
|                                                                          |
|                                                                          |
|-------------------------------------|------------------------------------|
|-------------------------------------|------------------------------------|
|-------------------------------------|------------------------------------|[Gtr.2]
|-------------------------------------|------------------------------------|
|-------------------------------------|----------------2---5-5-4---2-------|
|-------------------------------------|----------------0---3-3-2---0-------|
|                                                      .   . . .   .
|
|
|-------------------------------------||
|-------------------------------------||
|------------------------------------*||[Gtrs.1&2]
|-----------3------------------------*||
|---4---5---1---5---4---5---2---------||
|---2---3-------3---2---3---0---------||
    .   .       .   .   .   .


[Fill 6] (P.M.H.)
|------------------------------------------------|
|------------------------------------------------|[Gtr.1]
|------------------------------------------------|
|--3--3--3--3--3--3--3--3--3--3--3--3--3--3------|
|--1--1--1--1--1--1--1--1--1--1--1--1--1--1------|
|--|__________________|___________________|--X\--|
|                    12                       sl |
|                                                |
|                                                |
|------------------------------------------------|
|------------------------------------------------|
|------------------------------------------------|[Gtr.2]
|------------------------------------------------|
|------------------------------------------------|
|--(2.6")---(3")---(4")---(5")---(7")---(12")----|
   -------------Natural Harmonics------------



 [Ending]
||-------------------------------------------||
||-------------------------------------------||
||-------------------------------------------||[Gtr.1]
||------------------3-5-6---------------2----||
||--2---5-5-4---5---1-3-4---5---4---5---2----||
||--0---3-3-2---3-----------3---2---3---0----||
||  .   . . .       . . .   .   .   .   ^    ||
||                                           ||
||                                           ||
||-------------------------------------------||
||-------------------------------------------||
||-------------------------------------------||[Gtr.2]
||--------------------------------------2----||
||--2---5-5-4---5---1-3-4---5---4---5---2----||
||--0---3-3-2---3-----------3---2---3---0----||
    .   . . .       . . .   .   .   .   ^
                                      (End!)

--'OVER THE WALL' LYRICS--

Music:  Skolnick, Peterson
Lyrics: Souza, Peterson

I've been a prisoner
Trapped in by fear
Ordered for the rest of my life
Condemned in a jail cell
Ain't seen life in years
Escape is the only way out

CHORUS
------
Restart my life
Or self destruction
To climb this wall
Of dark construction
Holding the quest for freedom
That beckons me

My sanity is all but gone
My patience is growing very weak
I need to get a hold of myself
I stare at the wall
For the right time has come
Escape must occur on this night

CHORUS
------
Stand in my way
And I'll run you straight through
There's no one to stop me now
For I'm on the loose
And I'm ready to start
Torture and hell an this town

OVER THE WALL !!!!!!!!

The search will not stop
And hounds will not rest
Till I am back in my cell
For if I am caught,I'll try it again
Over the wall I will go,I will go

Check Out Jarle's Web Site, With More Transcriptions On It:
 http://www.jarleholsen.com

Check Out Death8699.com, With More Transcriptions On It:
 http://www.death8699.com

  Visit MetalTabs.com for more metal tablature
Comments