Testament - Musical Death Chords & Tabs

 

Musical Death Chords & Tabs

Testament Chords & Tabs

Version: 2 Type: Tab 0 ratings
1 star 2 stars 3 stars 4 stars 5 stars
comments

Musical Death Tab

                -   Musical Death(A dirge) form new order by T e s t A m e n T  -


^ - Pull off/hammer on        / -Slide  


       Intro/base Arpeggio(Accoustic?)
|-------------5---8----|--7-5-4---4---4--0-------|
|--------5-------------|---------3--3----0-------|
|------5---------------|-------------------------|
|----7-----------------|-------------------------|
|----------0---0-------|-------------------------|
|----------------------|-------------------------|

   
|-------------5---8--|-(7^5)---------------------|
|--------5-----------|--------6^5----------------|
|------5-------------|--------------7---7---7--0-|
|----7---------------|----------------6---6----0-|
|--0------0---0------|---------------------------|
|--------------------|---------------------------|

    
|------------5---8---|/13-12-10----10-----/-12---|
|--------5-----------|----------9-----9---/-11---|
|------5-------------|---------------------------|
|----7---------------|---------------------------|
|--0------0---0------|---------------------------|
|--------------------|---------------------------|

     
|-------10-----7-----4----|--1------0------0------|
|-------12-----9-----6----|--2------1------0------|
|-------13-----10----7----|--4------2------1------|
|-------------------------|---------2------2------|
|-------------------------|---------0------2------|
|-------------------------|-----------------------|

First Solo
|--------------------------------------------------------------------|
|-10^9-10-------/\----------------------------------------11-10-8----|
|---------7-10-9--------7-9-10-9-7-------------7-9-10-9-7------------|
|----------------------7-----------8^7--------7----------------------|
|--------------------------------------10~~--------------------------|
|--------------------------------------------------------------------|

|13-12-10-12-10----10------------------------------------------------------------------|
|--------13----13-12-13-12-10-13-12-10-------------------------------------------------|
|--------------------------------------12-10-9---------------------------9--9-10-------|
|----------------------------------------------12-10-9----9-10-12-9-10-12-12----7~~----|
|------------------------------------------------------12------------------------------|
|--------------------------------------------------------------------------------------|

       ^  ^                     ^  ^ 
|----12-15-12-----------------12-15-12---------12-17-15-12--/\---------------------------13-12-9---|
|--13--------13----/\-------13--------13-----13-----------15--15-15-15-----------8^10/12-----------|
|14------------14-9--9----14------------14-14--------------------------------7^9-------------------|
|------------------------------------------------------------------------5^7-----------------------|
|--------------------------------------------------------------------------------------------------|
|--------------------------------------------------------------------------------------------------|

|13-12-10-12-10----10------------------------------------------------------------------|
|--------13----13-12-13-12-10-13-12-10-------------------------------------------------|
|--------------------------------------12-10-9---------------------------9--9-10-------|
|----------------------------------------------12-10-9----9-10-12-9-10-12-12----7~~----|
|------------------------------------------------------12------------------------------|
|--------------------------------------------------------------------------------------|

[ Tab from: http://www.guitartabs.cc/tabs/t/testament/musical_death_tab_ver_2.html ]
|-----------------------------------------------------------------------------------------------|
|----------------------------------------------------------------------------^--^---------------|
|-7/12---12/19----20-19--------7--7/9---7/10----9--10--12-10--9--10-9-------9-10-12-10^9^10~~---|
|------------------------------------------------------------------------12---------------------|
|------------------------------5--5/7---5/8-----11-12--14-12-11--12-11--------------------------|
|-----------------------------------------------------------------------------------------------|


|----------------------------------------------------------------------------------------|
|----------------------------------------------------------------------/\----------------|
|---9-10-12-9~~--------9-10-12-10-12-14-12-10-12-10-9-10^9-7~~-------14--^12-14-----14\--|
|-12-----------------12--------------------------------------------------------12-12-----|
|----------------------------------------------------------------------------------------|
|----------------------------------------------------------------------------------------|
                       \----- this is worng for sure but... --/
     /   /      /\
|--17--17--15-17--15-17-15--15----------------------/\-------------/\--------------------|
|-------------------------18--18-17---------15-17-17--15-17---17-17-15-17-15--15-17-18---|
|----------------------------------19-----19--------------------------------17-----------|
|----------------------------------------------------------------------------------------|
|----------------------------------------------------------------------------------------|
|----------------------------------------------------------------------------------------|


|--------------------------------------------------------------------------------|
|--18-17-------------------------------------------------------------------------|
|--------14-------/\--------------------------------^--^-------------------------|
|---------------17--15-17-15-------14-15-17-15-14-15-14-15-14--------------------|
|-------------------------------17----------------------------17~~~~-------------|
|--------------------------------------------------------------------------------|
                               \----- i think this is wrong ---/

         ending arpeggio(clean sound)
|---------0----------------0------------0-----------------0---------|
|---6-------6---6----6-------6-----6------6----6---6--------6---6---|
|-----7----------------7-------------7----------------7-------------|
|-0-----0-----0---8------8------9------9-----9---8-------8----8-----|
|-------------------------------------------------------------------|
|-------------------------------------------------------------------| repeat till fade out

Solo Base
   
|---------------------|-----------------|
|---------------------|-----------------|
|--7--------------3---|-------------4---|
|--7------7--7--7-3---|----3--3--3--4---|
|--5------5--5--5-1---|----1--1--1--2---|
|---------------------|-----------------|

   
|------------------|------------------|
|------------------|------------------|
|---------3--------|--7-------------3-|
|--4-4-4--3--3-3-3-|--7----7--7--7--3-|
|--2-2-2--1--1-1-1-|--5----5--5--5--1-|
|------------------|------------------|

   
|---------------|----------------------|
|---------------|----------------------|
|------------4--|----------------------|
|---3--3--3--4--|-4-4-4---5------------|
|---1--1--1--2--|-4-2-2---3------------|
|---------------|----------------------|



       send Feedack to:
                 Fatal@esoterica.pt
                           1997-12-27
Comments