Testament - Low Chords & Tabs

 

Low Chords & Tabs

Testament Chords & Tabs

Version: 2 Type: Bass Tab 0 ratings
1 star 2 stars 3 stars 4 stars 5 stars
comments

Low Bass Tab

 Low from album "Low" by Testament
 Trascritta da Abate Alessandro
 Note: This version of the song is taken from "Live at Fillmore (1995)"
 For any comments or corrections please e-mail me at Sabbey@tin.it

  Intro
G---------------|----------------|---------------|----------------|--
D---------------|----------------|---------------|----------------|--
A---------------|----------------|---------------|---------5--7-8-|--
E-7-7-7-7-7-7-9-|-7-7-7-7-7-7-10-|-7-7-7-7-7-7-9-|-7-7-7----------|--
                                                    Bridge 1
G---------------|---------------|-----------------|------------|------------
D---------------|---------------|-----------------|------------|------------
A---------------|---------------|--------7--9--11-|------------|------------
E-9-9-9-9-9-9-9-|-9-9-9-9-9-9-9-|-9-9-9-----------|-5--5--5--5-|-5--5--5--5-

G------------|------------|---------------|-------------|--------10--8(8)-|-
D------------|------------|---------------|-------------|--9--7-----------|-
A------------|-8---6------|---------------|-----------7-|-----------------|-
E-5--5--5--5-|----------5-|-------5-------|-5-----------|-----------------|-
  Bridge 2
G----------------|---------------|-----------------|--------------|--
D----------------|---------------|---------------3-|--------------|--
A-5-5-5-5-5-5--3-|---------------|-5-5-5-5-5-5-----|--5-5---7---9-|--
E----------------|-5-5-5-5-5-5-5-|-----------------|--------------|--

G----------------|---------------|-----------------|--------------|--
D----------------|---------------|---------------3-|--------------|--
A-5-5-5-5-5-5--3-|---------------|-5-5-5-5-5-5-----|--5-5---7---9-|--
E----------------|-5-5-5-5-5-5-5-|-----------------|--------------|--

   1 Verse.......
G-----------------|----------12-10----------|-----------------|--
D-----------------|----12-14-------14-13-11-|-11-11-11-11-11\-|--
A-----------------|-12----------------------|-----------------|--
E--7(7)-----------|-------------------------|-----------------|--

G------------|------------|---------------|-----------------|--------------|
D------------|------------|---------------|-----------------|--------------|
A------------|------------|-7-7-7-7--7--3-|-5-5-5-5-5-5-5-5-|-5--2-------3-|
E-7--7--7--7-|-7--7--7--7-|---------------|-----------------|--------5-----|

G-----------------|--------------|-----------------|--------------|--
D-----------------|--------------|-----------------|--------------|--
A-5-5-5-5-5-5-5-5-|-5--2-------3-|-5-5-5-5-5-5-5-5-|-5--2-------3-|--
E-----------------|--------5-----|-----------------|--------5-----|--
                                                Chorus 1
G------------|------------|------------|----------------|---------------|--
D------------|------------|------------|----------------|---------------|--
A-3--3--3--3-|-3--3--5--5-|-5--5--5--5-|----------------|-6--8----------|--
E------------|------------|------------|-3--3---5--5--5-|-------5--5--5-|--

G---------------|----------------|-10--8----------|---------------|------|--
D---------------|-----------9--7-|----------------|---------------|------|--
A-6--8----------|-6--8---7-------|----------------|-6--8----------|-6--8-|--
E-------5--5--5-|----------------|--------5--5--5-|-------5--5--5-|------|--

G---------------|----------------|--
D---------------|-6--4-----------|--
A----------6--8-|----------------|--
E-5--5--5-------|----------------|--
  Bridge 2
G----------------|---------------|-----------------|--------------|--
D----------------|---------------|---------------3-|--------------|--
A-5-5-5-5-5-5--3-|---------------|-5-5-5-5-5-5-----|--5-5---7---9-|--
E----------------|-5-5-5-5-5-5-5-|-----------------|--------------|--

G----------------|---------------|-----------------|--------------|--
D----------------|---------------|---------------3-|--------------|--
A-5-5-5-5-5-5--3-|---------------|-5-5-5-5-5-5-----|--5-5---7---9-|--
E----------------|-5-5-5-5-5-5-5-|-----------------|--------------|--

  2 Verse........
G-----------------|-----------------|-----------------|-----------------|--
D-----------------|-----------------|-----------------|-----------------|--
A-----------------|-----------------|-----------------|-----------------|--
E-7-7-7-7-7-7-7-7-|-7-7-7-7-7-7-7-7-|-5-5-5-5-3-3-3-3-|-1-1-1-1-7-7-7-7-|--

G-----------------|----------------|-----------------|--------------|--
D-----------------|----------------|-----------------|--------------|--
A-----------------|-7-7-7-7-7-7--3-|-5-5-5-5-5-5-5-5-|-5--2-------3-|--
E-7-7-7-7-7-7-7-7-|----------------|-----------------|--------5-----|--
[ Tab from: http://www.guitartabs.cc/tabs/t/testament/low_btab_ver_2.html ]
G-----------------|--------------|-----------------|--------------|--
D-----------------|--------------|-----------------|--------------|--
A-5-5-5-5-5-5-5-5-|-5--2-------3-|-5-5-5-5-5-5-5-5-|-5--2-------3-|--
E-----------------|--------5-----|-----------------|--------5-----|--
                                                Chorus 2
G------------|------------|------------|----------------|---------------|--
D------------|------------|------------|----------------|---------------|--
A-3--3--3--3-|-3--3--5--5-|-5--5--5--5-|----------------|-6--8----------|--
E------------|------------|------------|-3--3---5--5--5-|-------5--5--5-|--

G---------------|----------------|-10--8----------|---------------|------|--
D---------------|-----------9--7-|----------------|---------------|------|--
A-6--8----------|-6--8---7-------|----------------|-6--8----------|-6--8-|--
E-------5--5--5-|----------------|--------5--5--5-|-------5--5--5-|------|--

G---------------|----------------|--
D---------------|-6--4-----------|--
A----------6--8-|----------------|--
E-5--5--5-------|----------------|--
 Bass and Drum.....
G-----------------|-----------------|-----------------|-----------------|--
D-----------------|-----------------|-----------------|-----------------|--
A-----------------|-----------5-3---|-----------5-3---|-7-5-3---3---3---|--
E-7-7-7-5-7-5-7-5-|-3-3-3-5-7-----5-|-3-3-3-5-7-----7-|-------5---5---7-|--

G-----------------|-----------------|-----------------|-----------------|--
D-----------------|-----------------|-----------------|-----------------|--
A-----------------|-----------5-3---|-----------5-3---|-7-5-3---3---3---|--
E-7-7-7-5-7-5-7-5-|-3-3-3-5-7-----5-|-3-3-3-5-7-----7-|-------5---5---7-|--

G-----------------|--
D-----------------|--
A-----------------|--
E-3-3-3-5-5-5-5-5-|--
  Guitar Solo
G-----------------|-----------------|-----------------|--
D-----------------|-----------------|-----------------|--
A-----------------|-----------5-3---|-7-5-3---3---3---|--
E-7-7-7-5-7-5-7-5-|-3-3-3-5-7-----5-|-------5---5---7-|--

G-----------------|-----------------|-----------------|-----------------|--
D-----------------|-----------------|-----------------|-----------------|--
A-----------------|-----------5-3---|-----------5-3---|-7-5-3---3---3---|--
E-7-7-7-5-7-5-7-5-|-3-3-3-5-7-----5-|-3-3-3-5-7-----7-|-------5---5---7-|--
  
G---------------|---------------|---------------|---------------|-------|--
D---------------|---------------|---------------|---------------|-6--4--|--
A----------6--8-|----------6--8-|----------6--8-|----------6--8-|-------|--
E-5--5--5-------|-5--5--5-------|-5--5--5-------|-5--5--5-------|-------|--

G---------------|---------------|---------------|----------10--8-|--
D---------------|---------------|---------------|----9--7--------|--
A----------6--8-|----------6--8-|----------6--8-|-7--------------|--
E-5--5--5-------|-5--5--5-------|-5--5--5-------|----------------|--
  Bridge 1
G------------|------------|------------|-----------|-----------|----------|-
D------------|------------|------------|-----------|-----------|----------|-
A------------|------------|------------|-6--8------|-----------|----------|-
E-5--5--5--5-|-5--5--5--5-|-5--5--5--5-|---------5-|---------5-|--------5-|-

G----------10--8-|--
D----9--7--------|--
A-7--------------|--
E----------------|--
  Bridge 2
G----------------|---------------|-----------------|--------------|--
D----------------|---------------|---------------3-|--------------|--
A-5-5-5-5-5-5--3-|---------------|-5-5-5-5-5-5-----|--5-5---7---9-|--
E----------------|-5-5-5-5-5-5-5-|-----------------|--------------|--

G----------------|---------------|-----------------|--------------|--
D----------------|---------------|---------------3-|--------------|--
A-5-5-5-5-5-5--3-|---------------|-5-5-5-5-5-5-----|--5-5---7---9-|--
E----------------|-5-5-5-5-5-5-5-|-----------------|--------------|--

   3 Verse.......
G-----------------|----------12-10----------|-----------------|--
D-----------------|----12-14-------14-13-11-|-11-11-11-11-11\-|--
A-----------------|-12----------------------|-----------------|--
E--7(7)-----------|-------------------------|-----------------|--

G------------|------------|---------------|--
D------------|------------|---------------|--
A------------|------------|-7-7-7-7--7--3-|--
E-7--7--7--7-|-7--7--7--7-|---------------|--
  Chorus 3
G---------------|---------------|---------------|----------10--8-|--
D---------------|---------------|---------------|----9--7--------|--
A----------6--8-|----------6--8-|----------6--8-|-7--------------|--
E-5--5--5-------|-5--5--5-------|-5--5--5-------|----------------|--

G---------------|-----------------|---------------|--------------|--
D---------------|-----------------|---------------|-6--4---------|--
A----------6--8-|------------6--8-|----------6--8-|--------------|--
E-5--5--5-------|-5--5--5---------|-5--5--5-------|--------------|--
  Outro
G---------------|----------------|---------------|----------------|--
D---------------|----------------|---------------|----------------|--
A---------------|----------------|---------------|---------5--7-8-|--
E-7-7-7-7-7-7-9-|-7-7-7-7-7-7-10-|-7-7-7-7-7-7-9-|-7-7-7----------|--

G---------------|---------------|-----------------|------------|---------|--
D---------------|---------------|-----------------|------------|---------|--
A---------------|---------------|--------7--9--11-|------------|---------|--
E-9-9-9-9-9-9-9-|-9-9-9-9-9-9-9-|-9-9-9-----------|-9--9--9--9-|-9--9-9\-|--

Comments