Testament - Legions Of The Dead Chords & Tabs

 

Legions Of The Dead Chords & Tabs

Testament Chords & Tabs

Version: 1 Type: Tab 0 ratings
1 star 2 stars 3 stars 4 stars 5 stars
comments

Legions Of The Dead Tab

   
Well im bored again so heres my rendition of legions.
tuning lo to hi: C# G# C# F# A# d#

intro
:-----5-7-8-
:-3-6-3-5-6-
:-3-6-------

:----------------------------------------------5-7-8-
:-6p5----6p5----6p5----6p5-3p0-6p5----6p5--3-6-3-5-6-
:----0000---0000---0000---0-------0000---003-6-------

:--------6p5-----------6p5-----------6p5------8------
:-6p5-----------6p5-------3p0-6p5---------3-6-6------ 
:----0000---0000---0000----------0000---003-6--------


verse
:------------------------------     :------------------5-8--
:-6p5----6p5----6p5----6p5-3p0- 3x> :-6p5----6p5---3-6-3-6-- 
:----0000---0000---0000---0----     :----0000---00-3-6------
[ Tab from: http://www.guitartabs.cc/tabs/t/testament/legions_of_the_dead_tab.html ]
paralyzed.....
:-----------------------------------9--6-
:-5"--7"-8"-4"--7"-4"-5"--8"-7"-4"--7--4-
:----------------------------------------

unholy.....
:-------------------------5"-4"---------------------------5"4"--6"5"-------
:------------------------------6"-----------------------------6"----6"3"5"-
:-0"6"5"6"0"6"5"6"0"6"5"6"--------0"6"5"6"0"6"5"6"0"6"5"6"-----------------

legions of the dead......
:-----------------
:-0-3-5-6-5-3-5-6- 4x
:-0-3-5-6-5-3-5-6-

:--------------7777-----7777777777-------------7777------7777777710-
:--------------5555-----5555555555-------------5555------555555558--
:-0000000000000----00000----------0000000000000-----00000-----------

solo riff (its close)
:----------------------------------
:--------6-5-3-5h6-------6-5-3-5h6-
:-000-0-0---------000-0-0----------


wop. check out my band Ded End at www.dedend.20m.com.
Comments