Testament - Hail Mary Chords & Tabs

 

Hail Mary Chords & Tabs

Testament Chords & Tabs

Version: 1 Type: Tab 0 ratings
1 star 2 stars 3 stars 4 stars 5 stars
comments

Hail Mary Tab

HAIL MARY
FROM THE ALBUM LOW
Main Riff 

|-----------------------------------------------------------|
|-----------------------------------------------------------|
|---------------------------------------9-------------------|
|---------------8--------8--------8--------8----------------|
|----7-7--7-------7---------7---------------7-6-------------|
|-----------------------------------------------------------|



Ends With
|-----------------------------------------------------------------------|
|-----------------------------------------------------------------------|
|----------------------------11------9--7-9--7--9--7--------------------|
|----------------------8----------------------------------------8-------|
|----7--7---7--7--------------------------------------------------------|
|-----------------------------------------------------------------------|



Double-Time

[ Tab from: http://www.guitartabs.cc/tabs/t/testament/hail_mary_tab.html ]
|------------------------------------------------------------------------------|
|------------------------------------------------------------------------------|
|------------------------------------------------------------------------------|
|------------------------------------------------------------------------------|
|---2----------------2-----2------------8-8--8--8--8-/9-----5----7----5--------|
|---0----------------0-----0------------6-6--6--6--6-/5-----3----5----3--------|

|-------------------------------------------------------------------------------|
|-------------------------------------------------------------------------------|
|-------------------------------------------------------------------------------|
|-------------------------------------------2-2--2--3--2--0---------------------|
|---------7-/-5/7--------2------------------------------------3-2-1-0-----------|
|---------5-/-3/5--------0------------------------------------------------------|

|-----------------------------------------------------------|
|-----------------------------------------------------------|
|-----------------------------------------------------------|
|-----------------------------------------------------------|
|---8--8--8--8---8/7-----5---------7----5----7/-5-/7--------|
|---6--6--6--6---6/5-----3--------5-----3----5/-3-/5--------|


|---------------------------------------------|
|--------------------9-----9------------9-----|
|--------------------9-----9------------9-----|
|--------------------9-----9------------9-----|
|-----2--------------7-----7------2-----7-----|
|-----0---------------------------0-----------|
Comments