Testament - Face In The Sky Chords & Tabs

 

Face In The Sky Chords & Tabs

Testament Chords & Tabs

Version: 1 Type: Tab 0 ratings
1 star 2 stars 3 stars 4 stars 5 stars
comments

Face In The Sky Tab

FACE IN THE SKY by T e s t A m e n T
[recorded in the souls of black album]


[intro only]
tabbed by Fatal, the jaded rule breaker[fatal@esoterica.pt]


(fade from the beggining of the end)
|---------------------------------------------------------------------|
|---------------------------------------------------------------------|
|---------------------------------------------------------------------|
|--------------7-(8)*--------8-7------------------7-8--8-7^8^7--------|
|----------7-8-------------------8-7----------7-8--------------8-7\(2)|
|-0--0-0-0----------0--0-0-0---------0--0-0-0-----------------------0-|
 
* slight p.h.    () full pinch harmonic
[ Tab from: http://www.guitartabs.cc/tabs/t/testament/face_in_the_sky_tab.html ]
|--------------------------------------------------------------------|
|----------------------------------------------------------------------|
|------------------------------------------------------------------------|
|--------------7-(8)*--------8-7-------------------7-8~~-8-7---------9---|
|----------7-8-------------------8-7-----------7-8-----------8-7-----7---|
|-0--0-0-0----------0--0-0-0---------0--0-0-0--------------------8-7-0---|
                                                          \_Palm muted__/
 

|-----------------------|
|-------------------------|
|--------------------------|
|---------------------------|
|-2---4---5------5---4------|
|-2---2---3---5--3---2-2----|
|-0-----------3--------0----|

fatal,
Comments