Testament - Eyes Of Wrath Chords & Tabs

 

Eyes Of Wrath Chords & Tabs

Testament Chords & Tabs

Version: 1 Type: Tab 0 ratings
1 star 2 stars 3 stars 4 stars 5 stars
comments

Eyes Of Wrath Tab

Testament - The Gathering - Eyes of Wrath

-excerpt-: this is an excerpt because this is the
only part that I really like from this CD. Its not
a bad album, but this part had an impact on me. To
me, it’s got that Dream Theater/LTE feel to it. 

circa (3:55 to end)

Db:---------------------------------------|
Ab:---------------------------------------|
B :---------------------------------------|
E :---------------------------------------|
Gb:-7---8---11-----12---11---8---11-----8-|
Db:---0---0----0-0----0----0---0----0-0---|

Db:---------------------------------------|
Ab:---------------------------------------|
B :---------------------------------------|
E :-------------------------9-7-6-7-6-----|
Gb:-7---8---11-----11---8-----------------|
Db:---0---0----0-0----0---0---------------|
[ Tab from: http://www.guitartabs.cc/tabs/t/testament/eyes_of_wrath_tab.html ]
Db:---------------------------------------|
Ab:---------------------------------------|
B :---------------------------------------|
E :---------------------10-9-7-9-7--------|
Gb:-7---8---11-----12---------------------|
Db:---0---0----0-0----0-------------------|

Db:---------------------------------------|
Ab:---------------------------------------|
B :---------------------------------------|
E :---------------------------------------|
Gb:-5---7---8------7--6--3--6-------------|
Db:---0---0---0-0--5--4--1--4-----------0-|


The end is harmonized with . . .

Db:-------|
Ab:-------|
B :-------|
E :--9----|
Gb:-------|
Db:--7----|

I am not a big Testament fan, but if they have
any other albums that have this kinda feel,
Let me know.


Done by Paul Navarro - Thew0lf419@aol.com
Comments, questions, complaints (don’t worry about complaints)?
Comments