Testament - Envy Life Chords & Tabs

 

Envy Life Chords & Tabs

Testament Chords & Tabs

Version: 1 Type: Tab 0 ratings
1 star 2 stars 3 stars 4 stars 5 stars
comments

Envy Life Tab

Testament                               tabbed by-Jeff Peters 
Envy Life(track 3)
Practice What You Preach(1989)
[ Tab from: http://www.guitartabs.cc/tabs/t/testament/envy_life_tab.html ]
Main riff and main rythym only (sorry, it's all I could get so far.I'll add 
the rest when I figure it out)
Main RIFF-volume swell on natural string noise starts riff
|---------------------------------------------------------------------|
|---------------------------------------------------------------------|
|-----------2-5-----------------7---5-------------2-5-----------------|
|--4-4p2-----------4-4p2--------7---5-----4-4p2---------4-4p2--4-3-2--|
|-------h4--------------h4------5---3----------h4------------h4-------|
|-2---------------2---------0-0---0------2-------------2--------------|
                            . .   .
continuation of riff
|----------------------------------------------------------------------|
|----------------------------------------------------------------------|
|-----------2-5-----------------7---5--------------2-5-----------------|
|--4-4p2-----------4-4p2--------7---5-----4-4p2----------4-4p2---4-3-2-|
|-------h4--------------h4------5---3----------h4-------------h4-4-3-2-|
|-2---------------2---------0-0---0------2--------------2--------2-1-0-|
                            . .   .
Main Rythym
|---------------------------|
|---------------------------|
|---------------------------|
|-2---5---4/3---8/7---8/7-7-|
|-2---5---4/3---8/7---8/7-5-|
|-0-0-3-0-2/3-0-6/5-0-6/5-5-|
    .   .     .     .     .

Thats all I know so far.      metalboy@mindspring
Comments