Testament - Dog Faced Gods Chords & Tabs

 

Dog Faced Gods Chords & Tabs

Testament Chords & Tabs

Version: 1 Type: Bass Tab 0 ratings
1 star 2 stars 3 stars 4 stars 5 stars
comments

Dog Faced Gods Bass Tab

Tabbed by lucas

i made this from guitar tab.
(luubass@hotmail.com)
tune 1 whole step down

Intro
|---------------------------------------------------------------|
|---------------------------------------------------------------|
|--------------4---4-3-1-----------------------------4---4-3-1--|
|-3-----------------------3-333333-3-333333-3-333333------------|
                           (with drums)

fig 2
--------------------------------|---------------------------------|
--------------------------------|---------------------------------|
---------------------------3----|---------------------------------|
-0-1-0-2-0-1-0-2-0-1-0-2-0---2p1|-0-1-0-2-0-1-0-2-0-1-0-2-0-3-333-|

--------------------------------|----------------------------|
--------------------------------|----------------------------|
---------------------------3----|----------------------------| 2x
-0-1-0-2-0-1-0-2-0-1-0-2-0---2p1|-0-1-0-2-0-1-0000-3--2--1--2|

fig 3
-------------------------------------------------------------------|
-------------------------------------------------------------------|
----7----------------7----------------7-----------------7----------|
0--0--0-3-2-1-2--0--0--0-3-2-1-2--0--0--0-3-2-1-2--0--0--0-3-2-1-2-|

fig 2 x

fig 4 2x ("the blood...")-
----------------------------------------------------------------------------|
----------------------------------------------------------------------------|
-----8-8-7-5-7---8-8-7-5-7----------------------------8-8-7-5-7---8-8-7-5-7-|
-0-0-----------0------------0---0-0-0-0-0-6---5---0-0-----------0-----------|

-------------|
-------------|
---------2-1-|
6-5-3-0------|

Fig 3
fig 2 x
[ Tab from: http://www.guitartabs.cc/tabs/t/testament/dog_faced_gods_btab.html ]
Chorus 2x
---------------------------------------------------------------------------|
---------------------------------------------------------------------------|
---1-2---------------1-2---------------1-2--------------1-2----------------|
-0-----0-3-2-00-2--0-----0-3-2-00-2--0-----0-3-2-00-2--0----0-3-2-00-2-----|

------------------|----------------------|
------------------|----------------------|
---1-2------------|----------------------|first time once, 2nd time twice
-0-----0-3-2-00-2-|--0003-0003-0003-0003-|

fig 4 2x

break
|-----------------------------------------------------------|
|-------------------------------------------------------7b--|
|-----7-----7-----7-----7---------7---------7---------7-----|
|-0-0---0-0---0-0---0-0---0/0-0/0---0/0-0/0---0/0-0/0-------|

interlude
-----------------------------------------|----------------------|
-----------------------------------------|----------------------|
-----------------------------------------|----------------------|
-0-0-0-0-7-6-5--5--5-5-5-5-5-5-5-5--6-5-1|-0-0--7-6-5-5--5-6-1--|

------------------------------------------------------------|
------------------------------------------------------------|
--------------5-4-3-33-3-3-33--3-4---------5-4-3-3333-3-4---|
-3--3-3-3-3-3----------------------5\4--3-----------------4-|

solo play as many times as need
-----------------------------------------------------------------|
-----------------------------------------------------------------|
---7---8----5-7-8---7---8---5-7-8---7---8---5-7-8--7---8---5-7-8-|
-0---0---0--------0---0---0-------0---0---0-------0--0---0-------|

Intro
fig 2 2x

---------------------------------------------------------------|
---------------------------------------------------------------|
------------------------------10-9-8-9----------------10-9-8-9-|
-0-0-0-0-0--3-2-1-2-0-0-0-0-0-----------0-0-0-0-0-0-0----------|

Chorus 2x
fig 4 2x
last note
---
---
---
-0-  enjoy!
Comments