Testament - Do Or Die Chords & Tabs

 

Do Or Die Chords & Tabs

Testament Chords & Tabs

Version: 1 Type: Tab 0 ratings
1 star 2 stars 3 stars 4 stars 5 stars
comments

Do Or Die Tab

   
        Do or Die from T e s t A m e n t

             from the album legacy
       done by fatal, fatal@esoterica.pt



Riff A (intro)
|---------------------------------------------------------|
|---------------------------------------------------------|
|---------------------------------------------------------|
|--9-----------7-----------9-----------------14-------12--|
|--7-7-7-(...)-5-10-9------7-7-7-(...)-------12-------10--|
|----------------8--7------------------0-0-0----0-0-0-----|
                .....Pm.


Then "Living  my life on more borrowed time, watching my dreams...
with riff A (intro)

and enter chorus "Nobody can hear you scream or shout..."

Riff b
|-----------------------------------------------------------|
|-----------------------------------------------------------|
|-----------------------------------------------------------|
|-9-------9-------9-------9-------9-9-10------10------10----|
|-7-7-7-7-7-7-7-7-7-7-7-7-7-7-7-7-7-7-8-8-8-8-8-8-8-8-8-8-8-|
|-----------------------------------------------------------|

|------------------------------------------------------------------|
|------------------------------------------------------------------|
|------------------------------------------------------------------|
|--10------10-10------------------------------------7-9-------9----|
|-8-8-8-8-8-8--8-9-------9-------9-------9-------9--5-7-7-7-7-7-7-7|
|----------------7-7-7-7-7-7-7-7-7-7-7-7-7-7-7-7-7-----------------|
[ Tab from: http://www.guitartabs.cc/tabs/t/testament/do_or_die_tab.html ]
|----------------------------------------------------------|
|----------------------------------------------------------|
|-----------9----------------------------------------------|
|---9-------9----------------------------------------------|
|-7-7-7-7-7-7----------------------------------------------|
|----------------------------------------------------------|


interlude after the solo ; 2 guitars at the same time
|---------------------------------------------------------|
|---------------------------------------------------------|
|---------------------------------------------------------| 1st guitar
|---9^8--8^7--7^6--6^5-----5^4--4^3--3^2--2^1-2^1---------|
|---------------------------------------------------------|
|-0----0----0----0--------0---0----0----0-----------------|
|
|---------------------------------------------------------|
|---------------------------------------------------------|
|---------------------------------------------------------| 2scnd guitar
|-2-------------------------------------------------------|  (only the first 2
times)
|-2-------------------------------------------------------|
|-0-------------------------------------------------------|
 (hold power choord)

Note: 1st guitar is sometimes doubled by a third(one octave above?)
then back to riff A and riff b on chorus

missing: a 3seconds riff prelude to the solo
         a 4 "      riff after the solo
         a riff during "you can see me, flying right over your head"

just couldnt figure them out, :(, try it if you can. 


fatal,
Comments