Testament - Chasing Fear Chords & Tabs

 

Chasing Fear Chords & Tabs

Testament Chords & Tabs

Version: 2 Type: Tab 0 ratings
1 star 2 stars 3 stars 4 stars 5 stars
comments

Chasing Fear Tab

       	       TESTAMENT

			CHASING FEAR

	         From the album"Low"

			tabbed By Kirk2

INTRO:

|----------------------------------------------------------------------------------
|---------------------------------------------------------------------------5--3-/6
|----9------9-----9-------------------------------------9----9----9----------------
|-------------------------------------------------------------------------6--------
|----7------7-----7-------2-2-2-2-2-2-2-2------------7----7-----7--7---------------
|-------0-0--0-0-0---0-0-0-0-0-0-0-0-0-0-------------------------------------------

|--------------------------------------------------------------|
|-------5/3-------10---11--------------------------------------|
|--------------9---7----10-------------9///////////------------|
|--------------------------------------------------------------|
|----------------------------------------------------trem bar--|
|------------------------------------------------------0///////|

while fading GTR1 plays

|--------------------------------------------------------------------------------|
|-----------------------------------------------------------------------6--6-----1
|--------------------------------------------------------------------3--5--5-----|
|-----2----------------------2----------------------------------2---3--3--3------|
|-----2----------------------2----------------------------------2----------------|
|-----0----------------------0---1-1-1-1-1-1-1-1-1-1-1-1-1--0---------------1----|

play this about 3 times
then play:
clean sound:
|-----------------------------------------------|
|-----------------------------------------------|
|----------------------------------7/9-9------1-|
|------------------------6---3----------------1-|
|--------------7-----------------5-5/7-7--------|
|-----0--0--0------0----------------------------|
[ Tab from: http://www.guitartabs.cc/tabs/t/testament/chasing_fear_tab_ver_2.html ]
|-------------------------------------------------------|
|-------------------------------------------10/12--12---|
|-------------------------------------------------------|
|------------------6----------------------7--X-7-7/9-9--|
|------------7------------------------------------------|
|--0--0-0------0----------------------------------------|

Play it some times and end it with:

|----------------------------------------|
|----------------------------------------|
|----------------------------------------|
|----------------------------------------|
|----7-8-7-5-75---5----------------------|
|-----------------6----6-5-3-5-6-3-5-//--|

this is the main Riff

FEAR!!!!

|-----------------------------------------------------------------------------------|
|-----------------------------------------------------------------------------------|
|-----------------------------------------------------------------------------------|
|-----------------------------------------------------------------------------------|
|-------------------3--3--2----5-----2------2----2----3----3--2------3/5-5/3-5-5----|
|-----0-0-0--------1--1--0------5-5---3-5-0----0-00-1----1--0-----------------------|

Play the main riff trought the Verses.

CHORUS:

"Chasing Fear"

|--------------------------------------------------------|
|--------------------------------------------------------|
|--------------------------------------------------------|
|--------------------------------------------------------|
|------------------------5/7----------------7-8-7-5------|
|----------0--0-0--5/6-------0--0-0-0--------------------|

End The Chorus With:

|---------------------------|
|---------------------------|
|---------------------------|
|---------------------------|
|---8-7-5-7-8-5-7-----------|
|---6-5-3-5-6-3-5-----------|

Thats was about it,ill add the Solo and the interlude later.

Tabbed by kirk2 eriks@east.no

http://www.geocities.com/SunsetStrip/Alley/6520/testament1.html

Testament is not for guitar players that just have started playing,the
riffs isnt that tricky but the Solos Could be realy hard for someone
that just have started playing.

ill add more songs later THANX!

METAL FOREVER.

kirk2.
Comments