Testament - Apocalyptic City Chords & Tabs

 

Apocalyptic City Chords & Tabs

Testament Chords & Tabs

Version: 2 Type: Tab 0 ratings
1 star 2 stars 3 stars 4 stars 5 stars
comments

Apocalyptic City Tab

   
       
        Apocalyptic City from T e s t A m e n T

                 from the album legacy
           done by fatal, fatal@esoterica.pt



intro (clean sound)
Riff A
|---------------------------------------------------------|
|---------------------------------------------------------|
|-5-------5--------5--------7---------7---------7---------|
|---9-------9--------9--------11--------11--------11------|
|-----7-------7--------7---------9---------9---------9----|
|-------5-------5--------5---------7---------7---------7--|

Lead guitar (played with riff A as background)
    /bend\                             bend
|-15--------bend--------------------12/----\--/bend\-------------------|
|--------13/----\---bend--------------------10--------bend-------------|
|----------------12/----\---------------------------9/----\-----11~~---|
|-----------------------14^15------------------------------11^12-------|
|----------------------------12~~--------------------------------------|
|----------------------------------------------------------------------|

Riff b
|---------------------------------------------|
|---------------------------------------------|
|---------------------------------------------|
|-------------------5-4-3---------------------|
|-2-----2-----2-----3-2-1-----2-----2---------|
|-0-0-0-0-0-0-0-0-0-------0-0-0-0-0-0-0-0-0-0-|
[ Tab from: http://www.guitartabs.cc/tabs/t/testament/apocalyptic_city_tab_ver_2.html ]
Lead guitar(played with riff b as background)
|---------------------------------------------------------|
|---------------------------------------------------------|
|--9~-\---4--4-/7--3~--------9~-\--4--4/----------13\-----|
|---------------------------------------------------------|
|--7~-\---2--2-/5--1~--------7~-\--2--2/--11-10~-(11)\----|
|---------------------------------------------------------|

Main riff (not 1009ۿUۿeۿۿۿۿܿOܿhܿzܿܿܿܿܿݿ_ݿݿݿݿݿݿݿ6޿Q޿޿ure)
|---------------------------------------------------------|
|---------------------------------------------------------|
|---------------------------------------------------------|
|---------------------------------------------------------|
|---------------------------------------------------------|
|-0--0-0-0-0--0-0-0-0--0-0-0-0--3--2--1~~-----------------|
                                      (light pinch harmonic)
|---------------------------------------------------------|
|---------------------------------------------------------|
|---------------------------------------------------------|
|---------------------------------------------------------|
|-------------------------------7--6--5~~-----------------|
|-0--0-0-0-0--0-0-0-0--0-0-0-0----------------------------|
                                      (pinch harmonic)

followed by: (very uncertain about this riff)
|---------------------------------------------------------------------|
|---------------------------------------------------------------------|
|---------------------------------------------------------------------|
|-2---2^3^2----2^3^2---2^3^2-3---3^2---2^3^2---2^3^2-3-------------1--|
|-2---2^3^2----2^3^2---2^3^2-3---3^2---2^3^2---2^3^2-3-1-1-1-1-1-1-1--|
|-0--0--------0-------0---------------0-------0-----------------------|

then these last riffs go with verse(the first) the chorus(the second one),
both:
"Born into a world of hatred, nothing to live for..."- first main riff
and
"i can feel the fire, burning inside of me..."-with the last riff


fatal,
Comments