Test Icicles - Circle Square Triangle Chords & Tabs

 

Circle Square Triangle Chords & Tabs

Test Icicles Chords & Tabs

Version: 2 Type: Tab

Circle Square Triangle Tab

order of song

intro
verse
chorus
intro/preverse
verse
chorus
guitar solo
bridge
verse
chorus

guitar 1

intro/chorus

e--------------------------------------------------------|
b-9--9--9--9--9--9--9--9--9--9---10-10-10-10-10-10-10-10-|
g-9--9--9--9--9--9--9--9--9--9---9--9--9--9--9--9--9--9--|
d-11-11-11-11-11-11-11-11-11-11--11-11-11-11-11-11-11-11-|
a--------------------------------------------------------|
E--------------------------------------------------------|

verse

e-----------|
b----9-12-9-|
g-----------|
d--11-------|
a-----------|
E-----------|

verse part 2
(a combonation of all three of the parts above also)
e------------------------------------------------------------------|
B------------------------------------------------------------------|
G------------------------------------------------------------------|
D-11s-14b-7-7s-9/--------------------------------------------------|
A------------------------------------------------------------------|
E------------------------------------------------------------------|

guitar solo

???? a slur of notes really
e------------------------------------------------------------------|
B------------------------------------------------------------------|
G------------------------------------------------------------------|
D------------------------------------------------------------------|
A------------------------------------------------------------------|
E------------------------------------------------------------------|

rap bridge (keyboard organ synthy thing for guitar)

e------------------------------------------------------------------|
B-14--------------------------14~-fbk.-----------------------------|
G------------------------------------------------------------------|
D-11-repeat--------------------------------------------------------|
A------------------------------------------------------------------|
E------------------------------------------------------------------|


guitar 2

intro

e------------------------------------------------------------------|
B------------------------------------------------------------------|
G------------------------------------------------------------------|
D-/11~-------------------------------------------------------------|
A------------------------------------------------------------------|
E------------------------------------------------------------------|

e------------------------------------------------------------------|
B-12-12--12-12--10-10--9--9----------------------------------------|
G-9--9---9--9---9--9---9--9----------------------------------------|
D-11-11--11-11--11-11--11-11---------------------------------------|
A------------------------------------------------------------------|
E------------------------------------------------------------------|

verse

e------------------------------------------------------------------|
B------------------------------------------------------------------|
G------------------------------------------------------------------|
D-11-11-11-9-9-9-7-7-7-6-6-6---------------------------------------|
A------------------------------------------------------------------|
E------------------------------------------------------------------|
[ Tab from: http://www.guitartabs.cc/tabs/t/test_icicles/circle_square_triangle_tab_ver_2.html ]
e------------------------------------------------------------------|
B------------------------------------------------------------------|
G------------------------------------------------------------------|
D-11-11--14/--11-11-14/--------------------------------------------|
A------------------------------------------------------------------|
E------------------------------------------------------------------|

chorus

e------------------------------------------------------------------|
B------------------------------------------------------------------|
G------------------------------------------------------------------|
D-11~--------------------------------------------------------------|
A------------------------------------------------------------------|
E------------------------------------------------------------------|

pre-bridge

e------------------------------------------------------------------|
b------------------------------------------------------------------|
G-16fbk.---------weird-string noises-------------------------------|
D------------------------------------------------------------------|
A------------------------------------------------------------------|
E------------------------------------------------------------------|

bass

intro

G--------------------------------------------------------------------|
D--------------------------------------------------------------------|
A--------------------------------------------------------------------|
E-1/9~-9-------------------------------------------------------------|

G------------------------------------------------------------------|
D------------------------------------------------------------------|
A------------------------------------------------------------------|
E-9-9-9-9-7-7-7-7--4-4-5-5-5-5-5-5-5-4-4-4-4-4---------------------|

chorus
G------------------------------------------------------------------|
D------------------------------------------------------------------|
A------------------------------------------------------------------|
E-9--9-9--12-12-12-14-14-14-17-17-17-------------------------------|

verse

G--------------------------------------------------------------------|
D-------------------7-7-9-10-11------7-7-9-10-11~--------------------|
A-----7\----7\----7----------------7---------------------------------|
E-9-9----9-9---9-9--------------9-9-----------9----------------------|

G---------------------------------------------------------------------|
D---------------------------------------------------------------------|
A-9-7-5-4--9-7-5-4--9-7-5-4--9-7-4-11---------------------------------|
E---------------------------------------------------------------------|

bridge

G------------------------------------------------------------------|
D---------------------------9-11-----------------------------------|
A-------------------9-10-11----------------------------------------|
E-9-9-9-9-9-9-10-11------------------------------------------------|

G------------------------------------------------------------------|
D------------------------------------------------------------------|
A------------------------------------------------------------------|
E-9-9-9-9-7-7-7-7-5-5-5-5-7-7-7-8-9-9------------------------------|