Tesla - Love Song Chords & Tabs

 

Love Song Chords & Tabs

Tesla Chords & Tabs

Version: 4 Type: Tab 0 ratings
1 star 2 stars 3 stars 4 stars 5 stars
comments

Love Song Tab

   
the intro is just finger picking you will have to listen to the song to play it


P-PULL OFF
S-SLIDE
H-HAMMER ON

PLAYED IN STANDERED

     h p
e-3-3-2-0---------
b---------7s-2-2-2 
g-----------------
d-0---------------
a-----------------
E-----------------
[ Tab from: http://www.guitartabs.cc/tabs/t/tesla/love_song_tab_ver_4.html ]
       h p
e-2-3-2-3-0------------------------
b------------2-3-5-3---4-3----0-2-3
g--------------------4-----4-------
d-0----------0---------------------
a------------------2---------------
E-----------------------------3----


e---------------------------------
b---------------------------------
g-4-2-0-3x----------4-2-0-1x------
d----------2-4-0-1x---------------
a----------------------------4-2-0
E---------------------------------

same part
e---------------------
b--h-p----------------
g-4-2-0---h-p---------
d--------4-2-0---h-p--
a---------------4-2-0-
E---------------------

thats the intro i had the chance to meet tesla and they showed me this song its 100% right
Comments