Tesla - Love Song Chords & Tabs

 

Love Song Chords & Tabs

Tesla Chords & Tabs

Version: 2 Type: Tab 1 rating
1 star 2 stars 3 stars 4 stars 5 stars
comments

Love Song Tab

   
#----------------------------------PLEASE NOTE--------------------------------#
#This file is the author's own work and represents their interpretation of the#
#song. You may only use this file for private study, scholarship, or research.#
#-----------------------------------------------------------------------------#

Artist: Tesla
Song: Love Song
Ending Solo and Corrections by: Bomber
Tabbed By Bomber

Standard Tunning.(Just a little advice: Use 440hz for the last five strings;
for the first one use a 444hz pitch)

b= full bend
bb= 1/2bend
h= hammer on
p= pull off
/= slide up
\= slide down
bu= bend up and back down
sbs= strike, bend and strike with the string bent
bs= strike with the string bent

intro: 

gtr1(acoustic) 
------------------------------------------------------------------- 
    G                                 D 
    +       +       +       +         +       +       +       +     
e:--3---------------3p-2p-0---------|--------------------------------- 
b:----------------------------------|-7\----------3-3-3--------------- 
g:----------------------------------|--------------------------------- 
d:--0-------------------------------|-0------------------------------- 
a:----------------------------------|--------------------------------- 
E:----------------------------------|--------------------------------- 


gtr2(acoustic) 
(play after gtr1 plays 1st 2 bars) 

    +       +       +       +                 
e:-----14-14-14p-12p-10-------------| 
b:----------------------------------| 
g:----------------------------------| 
d:----------------------------------| 
a:----------------------------------| 
E:----------------------------------| 


gtr1(acoustic) 
    D                                 A 
    +       +       +       +         +       +       +       + 
e:--2----------3--2h-3p-2p-0--------|--------------------------------- 
b:----------------------------------|-2-------3-------5--------------- 
g:----------------------------------|--------------------------------- 
d:--0-------------------------------|--------------------------------- 
a:----------------------------------|-0------------------------------- 
E:----------------------------------|--------------------------------- 

    Bm                                G 
    +       +       +       +         +       +       +       +        
e:----------------------------------|--------------------------------- 
b:--3---------------3---------------|-0-------2-------3--------------- 
g:--------------4-------4-----------|--------------------------------- 
d:----------4-----------------------|--------------------------------- 
a:--2-------------------------------|--------------------------------- 
E:----------------------------------|-3------------------------------- 


gtr2(acoustic)(continue gtr1) 

    D                                 A 
    +       +       +       +         +       +       +       +        
e:--5----------7--5h-7p-5p-3--------|-0-------2-------3--------------- 
b:----------------------------------|--------------------------------- 
g:----------------------------------|--------------------------------- 
d:----------------------------------|--------------------------------- 
a:----------------------------------|--------------------------------- 
E:----------------------------------|--------------------------------- 

    Bm                                G 
    +       +       +       +         +       +       +       +        
e:--2-------------------------------|---------0-------2--------------- 
b:----------------------------------|-3------------------------------- 
g:----------------------------------|--------------------------------- 
d:----------------------------------|--------------------------------- 
a:----------------------------------|--------------------------------- 
E:----------------------------------|--------------------------------- 


gtr3(acoustic)(continue gtrs1&2) 

    D                                 A 
    +       +       +       +         +       +       +       +        
e:--10-------12--10h-12p-10p-9------|-9-------10------12-------------- 
b:----------------------------------|--------------------------------- 
g:----------------------------------|--------------------------------- 
d:----------------------------------|--------------------------------- 
a:----------------------------------|--------------------------------- 
E:----------------------------------|--------------------------------- 

    Bm                                G 
    +       +       +       +         +       +       +       +        
e:--10------------------------------|-----------------10-------------- 
b:----------------------------------|-10------12---------------------- 
g:----------------------------------|--------------------------------- 
d:----------------------------------|--------------------------------- 
a:----------------------------------|--------------------------------- 
E:----------------------------------|--------------------------------- 
play gtr3 2 times with continued gtrs1&2 


gtr1(acoustic) 
     
    Bm      A       E/G#              G 
    +       +       +       +         +       +       +       +        
e:------------------0---------------|--------------------------------- 
b:--3-------2-----------------------|-3---------------3--------------- 
g:----------------------------------|--------------0-----0------------ 
d:----------------------------------|-----------0--------------------- 
a:--2-------0-----------------------|--------------------------------- 
E:------------------4---------------|-3------------------------------- 

                                    (play 1st time only 
                                     second time skip to 
                                     riff 2)  

    A                                 D/F# 
    +       +       +       +         +       +       +       +        
e:----------------------------------|--------------------------------- 
b:--2---------------2---------------|-3---------------3--------------- 
g:---------------2-----0------------|--------------2-----2------------ 
d:------------2---------------------|-----------0--------------------- 
a:--0-------------------------------|--------------------------------- 
E:----------------------------------|-2------------------------------- 


                                      G 
    +       +       +       +         +       +       +       +        
e:----------------------------------|--------------------------------- 
b:--3---------------3---------------|-0-------2-------3--------------- 
g:---------------2-----2------------|--------------------------------- 
d:------------0---------------------|--------------------------------- 
a:----------------------------------|--------------------------------- 
E:--2-------------------------------|-3------------------------------- 

    D/F#                              Em 
    +       +       +       +         +       +       +       +        
e:----------------------------------|--------------------------------- 
b:----------2-------3---------------|-/5------3-------2h3p2----------- 
g:--2-------------------------------|--------------------------------- 
d:----------------------------------|--------------------------------- 
a:----------------------------------|--------------------------------- 
E:--2-------------------------------|--0------------------------------ 

    D/F#                              G  
    +       +       +       +         +       +       +       +        
e:----------------------------------|--------------------------------- 
b:----------2-------3---------------|-0-------2-------3--------------- 
g:--2-------------------------------|--------------------------------- 
d:----------------------------------|--------------------------------- 
a:----------------------------------|--------------------------------- 
E:--2-------------------------------|-3------------------------------- 

    D/F#                              Em 
    +       +       +       +         +       +       +       +        
e:----------------------------------|--------------------------------- 
b:----------2-------3---------------|-/5------3-------2h3p2----2------ 
g:--2-------------------------------|--------------------------------- 
d:----------------------------------|--------------------------------- 
a:----------------------------------|--------------------------0------ 
E:--2-------------------------------|--0------------------------------ 


    N.C 
    +       +       +       +         +       +       +       +        
e:-------------------------------------------------------------------- 
b:-------------------------------------------------------------------- 
g:--4p2p0-4p2p0-4p2p0-4p2p0-4p2p0-------------4p2p0------------------- 
d:--------------------------------4p2p0-------------4p2p0------------- 
a:--------------------------------------4p2p0-------------4p2p0------- 
E:-------------------------------------------------------------------- 



gtr2(acoustic) 

    Bm      A       E/G#              G  
    +       +       +       +         +       +       +       +        
e:--10--9--7------------------------|--------------------------------- 
b:------------10--8--7--------------|--------------------------------- 
g:----------------------9--7--6-----|-7------------------------------- 

[ Tab from: http://www.guitartabs.cc/tabs/t/tesla/love_song_tab_ver_2.html ]
                                     (play first time only 
                                      second time skip to 
                                      riff 2) 

    A                                 D/F#  
    +       +       +       +         +       +       +       +        
e:----------------------------------|--------------------------------- 
b:----------------------------------|--------------------------------- 
g:--6-------------------------------|-7------------------------------- 
d:----------------------------------|---------4h5-----4--------------- 


    G                                 D/F# 
    +       +       +       +         +       +       +       +        
e:----------9-------10--------------|---------9-------10-------------- 
b:--12------------------------------|-10------------------------------ 

    Em                                D/F# 

e:----------9-------10--------------|-12------10------9--------------- 
b:--8-------------------------------|--------------------------------- 

    G                                 D/F# 

e:----------9-------10--------------|---------9-------10-------------- 
b:--12------------------------------|-10------------------------------ 

    Em                                A 

e:----------9-------10--------------|-7h9----------------------------- 
b:--8-------------------------------|--------------------------------- 



gtr3(acoustic) 
(i think you get the idea with the cords so i'm not going to put them on this one) 


    +       +       +       +         +       +       +       +        
e:--14-12-10------------------------|--------------------------------- 
b:-----------14-12-10---------------|--------------------------------- 
g:--------------------12-11-9-------|-12------------------------------ 

                                      
                                     (play first time only 
                                      second time skip to  
                                      riff 2) 
e:----------------------------------|--------------------------------- 
b:----------------------------------|--------------------------------- 
g:--9-------------------------------|-11------------------------------ 
d:----------------------------------|---------7h9----7---------------- 


e:----------9-------10--------------|---------9-------10-------------- 
b:--12------------------------------|-10------------------------------ 


e:----------9-------10--------------|--------------------------------- 
b:--8-------------------------------|-14------12------10-------------- 


e:----------9-------10--------------|---------9-------10-------------- 
b:--12------------------------------|-10------------------------------ 


e:----------9-------10--------------|-/12----------------------------- 
b:--8-------------------------------|--------------------------------- 


play again from beginning but start with all 3 gtrs this time 


RIFF 2 

gtr1 


    D 
                                      harmonic 
    +       +       +       +         +       +       +       + 
e:--2---------------2/--------------|--------------------------------- 
b:----------------------------------|-7------------------------------- 
g:----------------------------------|-7------------------------------- 
d:--0-------------------------------|--------------------------------- 



gtr2 

    +       +       +       +         +       +       +       +   
e:----------------------------------|--------------------------------- 
b:----------------------------------|--------------------------------- 
g:--7---------------2/h4------------|-2------------------------------- 


gtr3 

    +       +       +       +         +       +       +       + 
e:----------------------------------|--------------------------------- 
b:----------------------------------|--------------------------------- 
g:--11--------------7/--------------|-14------------------------------



Verse:
gtr1(acoustic) 
-------------------------------------------------------------------

Riff 1:

E|--------------7-7-7-5-3-5---7-7-7-5-3-2---7-7-7-5-3-5---7-7-7-5-3-|
B|--------------8-8-8-7-5-7---8-8-8-7-5-3---8-8-8-7-5-7---8-8-8-7-5-|
G|------------------------------------------------------------------|
D|--0-0-0-0-0-0-----------------------------------------------------|
A|------------------------------------------------------------------|
E|------------------------------------------------------------------|



Fill 1:

E|-2h3P2-------------------|
B|-------3h5P3-------------|
G|-------------2h4P2-------|
D|-------------------2h4p2-|
A|-------------------------|
E|-------------------------|



Solo: This is an old version but with a lot of corrections, here it goes.


E|-------------------------------------12------------------------------------|
B|-------b15\--b15-b15-12h15p12-----12----15-12------------------------------|
G|-------------------------------b14------------14-b14-12--------------------|
D|--------------------------------------------------------14------5-b7-7-5-7-|
A|-------------------------------------------------------------/7------------|
E|-12\-0---------------------------------------------------------------------|

E|-----------------------------------------------15--------------------------|
B|-------------------13--12-------------------------15-----------------------|
G|------------5-4-----------14--14P16P14-12--B14-------bd14p12----12---------|
D|-7/9-7P9-7------7--------------------------------------------14------------|
A|---------------------------------------------------------------------------|
E|---------------------------------------------------------------------------|

E|---------------------------------------------------------------------------|
B|---------------------------------------------------------------------------|
G|12-12-12\11-11-11-11\9-9-9-9\7-7-7-7-9-7----------7---9b10-9bs10r9-7-------|
D|--------------------------------------------7-7-9---7----------------------|
A|---------------------------------------------------------------------------|
E|------------------------------------------------------------------------0--|

E|-----------------------------12--------------------------------------------|
B|b15-----b15-b15-12-15-12-----12----15-12---------------b15-----------------|
G|-------------------------b14-------------14-b14-12-------------------------|
D|---------------------------------------------------14----------------------|
A|---------------------------------------------------------------------------|
E|----0-0--------------------------------------------------------------------|
 
E|b17-17p15-b17-17p15-17-----------------------------------------------------|
B|-----------------------13-12----13-12----13-12----13-12--------------------|
G|-----------------------------14-------14-------14-------14-14p16p14--12-b14|
D|---------------------------------------------------------------------------|
A|---------------------------------------------------------------------------|
E|---------------------------------------------------------------------------|

E|15-------------------------------------------------------------------------|
B|---15----------------------------------------------------------------------|
G|------14-14p12----12--12-12-12\11-11-11-11\9-9-9-9\7-7-7-7-9-7-------------|
D|---------------14----------------------------------------------------------|
A|-----------------------------------------------------------------5-7b8r7-5-|
E|---------------------------------------------------------------------------|

E|---------------------10-8/10---20-20-20-20b21-20bs22-20bs22-20bs22-20bs22--|
B|------------------10-------------------------------------------------------|
G|--------7--7-9/11----------------------------------------------------------|
D|----7-9--------------------------------------------------------------------|
A|7-9------------------------------------------------------------------------|
E|---------------------------------------------------------------------------|


  
Ending Solo: This one goes at the same time as the "Love will find a way" part. Enjoy.


E|17b19-17b19-17sbs19r17p15h17------------15----17h19p17p15----13/15--15~~~\-|
B|------------------------------15--15-17----15-------------17---------------|
G|---------------------------------------------------------------------------|
D|---------------------------------------------------------------------------|
A|---------------------------------------------------------------------------|
E|---------------------------------------------------------------------------|

E|---------------------------------------------------------------------------|
B|------------------13b15r13-------------------------------------------------|
G|14b16-12----12-------------12b14r12\---10/12-12-12----12/14h16p14p12-------|
D|---------14----14----------------------------------12----------------12----|
A|---------------------------------------------------------------------------|
E|---------------------------------------------------------------------------|

E|---------------------------------------------------------------------------|
B|---------------------------------------------------------------------------|
G|------12----14-16p14p12----12b14-14b16-14b16-14b16-14b16-14b16r14p12~~~~~--|
D|12-14----12-------------14-------------------------------------------------|
A|---------------------------------------------------------------------------|
E|---------------------------------------------------------------------------|

That's about it. It took a little time to find the intro and transcribe the solos,
specially the last one.

Comments to musicbomber@hotmail.com
Comments