Tesla - Love Song Chords & Tabs

 

Love Song Chords & Tabs

Tesla Chords & Tabs

Version: 1 Type: Tab 0 ratings
1 star 2 stars 3 stars 4 stars 5 stars
comments

Love Song Tab

   
#----------------------------------PLEASE NOTE---------------------------------#
#This file is the author's own work and represents their interpretation of the #
#song. You may only use this file for private study, scholarship, or research. #
#-----------------------------------------------------------------------------
Date: 25 Mar 1993 22:42:39 -0600 (CST)
From: Chuck Dolese 
Subject: Tablature for Love Song by Tesla
To: jamesb@animal-farm.nevada.edu
Message-Id: 
Organization: Southeastern Louisiana University
X-Vms-To: IN%"jamesb@nevada.edu"
Mime-Version: 1.0
Content-Type: TEXT/PLAIN; CHARSET=US-ASCII
Content-Transfer-Encoding: 7BIT

Ok Here it goes the music for Love Song. Sorry about the previous incorrect
posting I don't know what I was thinking.  Here is the corrections in full.
The solo is only similar but close enough top sound exact. I will divide the 
song into 6 sections 1)Acoustic Intro 2)Electric Intro 3)1st & 2nd Verse
4)Chorus 5)solo 6)Outro. Here I go again!!
                           Love Song by Tesla

Just a little note here. I am not sure of what the second guitar part on
the intro but I am pretty sure of the first guitar at some points I am
not sure exactly what order he picks the notes but the chords should be 
correct. When the intro (classical type) intro is over and the other 
guitar comes in, it is played on a twelve string.

SECTION I
|-3-3p2p0----------14-14-14p12p10--|-2--3--3p2p0-----------------------|
|----------7s2-2-2-----------------|--------------2--3--5--3--3--0-2-3-|repeat
|----------------------------------|-------------------------4-4-------|this
|-0--------------------------------|-0----------------------4----------|  |--14-12-10---------------------|
|---2-3-3s5-3-2|        GOES WITH THE   |-----------14-12-10------------|
|-0------------|         TURNAROUND     |--------------------12-10-9----|
|--------------|           ABOVE        |----------------------------12-|
|--------------|                        |-------------------------------|
|--------------|                        |-------------------------------|

Fill--> E|--------------------------------------------------------------|
        B|--------------------------------------------------------------|
        G|-4p2p0--4p2p0--4p2p0--4p2p0-4p2p0------------4p2p0------------|
        D|---------------------------------4p2p0------------4p2p0-------|
        A|---------------------------------------4p2p0-----------4p2p0--|
        E|--------------------------------------------------------------|

Different ending
starting with G Chord
   |---------2--3-5-|
   |-0-2-3---3--5-7-|  Then it goes to the main part of the song.
   |---------2--4-7-|    Which is described below.
   |---------0------|
   |----------------|
   |-3--------------|
SECTION II
E|--------------7-7-7-5-3-5---7-7-7-5-3-2---7-7-7-5-3-5---7-7-7-5-3-|
B|--------------8-8-8-7-5-7---8-8-8-7-5-3---8-8-8-7-5-7---8-8-8-7-5-|
G|------------------------------------------------------------------|
D|--0-0-0-0-0-0-----------------------------------------------------|
A|------------------------------------------------------------------|
E|------------------------------------------------------------------|
Section III & IV)
Now there is just mostly chords when he starts singing and just pick through 
the chords. I'll give any fills I can remember.
[ Tab from: http://www.guitartabs.cc/tabs/t/tesla/love_song_tab.html ]
 
(Cool Fill here)
 (Its gonna take a little time etc).
 (same chords here as above with intro riff at the end)
 Here is the cool fill
 E|-2P3P2--------------|
 B|-------3P5P3--------|
 G|-------------2P4P2--|--> OR SOMETHING LIKE THAT
 D|--------------------|
 A|--------------------|
 E|--------------------|
     D                 

      
 SECTION V(SOLO) b=full bend(bb=1 1/2bend)(h=hammer on)(p=pull off)/=slide
                 bu=bend up and back down(bd=already bent as you strike)
E|-------------------------------12------------------------------------|
B|-b15\--b15-b15-12h15p12-----12----15-12------------------------------|
G|-------------------------b14------------14-b14-12--------------------|
D|--------------------------------------------------14------5-b7-7-5-7-|
A|-------------------------------------------------------/7------------|
E|---------------------------------------------------------------------|

E|-----------------------------------------------15--------------------|
B|-------------------13--12-------------------------15-----------------|
G|------------5-4-----------14--14P16P14-12--B14-------bd14p12----12---|
D|-7/9-7P9-7------7--------------------------------------------14------|
A|---------------------------------------------------------------------|
E|---------------------------------------------------------------------|

E|---------------------------------------------------------------------|
B|----------------------------------7-9-7------b15--b15-b15-12-15-12---|
G|12-12-12\11-11-11-11\9-9-9-9\7-7h9-----------------------------------|
D|---------------------------------------------------------------------|
A|---------------------------------------------------------------------|
E|---------------------------------------------------------------------|

E|-------12-------------------------b17-17p15-b17-17p15-17-------------|
B|----12----15-12---------------b15--------------------------13-12-----|
G|b14-------------14-b14-12----------------------------------------14--|
D|--------------------------14-----------------------------------------|
A|---------------------------------------------------------------------|
E|---------------------------------------------------------------------|
 
E|-------------------------------------15------------------------------|
B|13-12----13-12--------------------------15---------------------------|
G|------14-------14--14p16p14--12---b14------14-14p12----12--12-12-----|
D|----------------------------------------------------14---------------|
A|---------------------------------------------------------------------|
E|---------------------------------------------------------------------|

E|--------------------------------------------------------------10-----|
B|-----------------------------7p9-7------------------7------10----b13-|
G|12\11-11-11-11\9-9-9-9\7-7p9--------------------7h9----/11-----------|
D|-------------------------------------5-bu7-5-7/9---------------------|
A|---------------------------------------------------------------------|
E|---------------------------------------------------------------------|

E|-20-20-20-b20-b20-b20------------------------------------------------|
B|---------------------------------------------------------------------|
G|---------------------------------------------------------------------|
D|---------------------------------------------------------------------|
A|---------------------------------------------------------------------|
E|---------------------------------------------------------------------|
Comments