Tesla - Lady Luck Chords & Tabs

 

Lady Luck Chords & Tabs

Tesla Chords & Tabs

Version: 1 Type: Tab 0 ratings
1 star 2 stars 3 stars 4 stars 5 stars
comments

Lady Luck Tab

   
-----------------------------------------------------------------------------
			     Telsa "Lady Luck"
                              (Rythm Guitar)
-----------------------------------------------------------------------------
Tabbed by:Joshua Dinwiddie aka crueddude
Email:crueddude@yahoo.com
Tuning:I used drop D tuning. Your not going to be strumming the E string alot
anyway but if you want, you can fit it into some of the strumming to make it
sound better. Youll have to listen to the whole song to get all this right.


  (Do this until the lead guitar comes in)
e|---------------------------------------------------------------------------|
B|---------------------------------------------------------------------------|
G|---------------------------------------------------------------------------|
D|1-0----------------6-5~----9-7-5-------------------------------------------|
A|1-0---0-5-6-7-0-9-7--------9-7-5-------------------------------------------|
E|---------------------------------------------------------------------------|

_____________________________________________________________________________


  (When lead joins in)              |  1A   |
e|----------------------------------|-------|--------------------------------|
B|----------------------------------|-------|--------------------------------|
G|----------------------------------|--5-x--|-5-3----------------------------|
D|1-0-x-x-x-x-x-x--------------6-5~-|--5-x--|-5-3-3-2(let ring till lyrics)--|
A|1-0-x-x-x-x-x-x-0-5-6-7-0-9-7-----|--5-x--|-5-3-3-2------------------------|
E|----------------------------------|-------|--------------------------------|
                                        ^
Strum 1A by bouncing your strumming hand off and on the srings while still
holding the 5th fret with ur other hand and do it fast. Youll have to listen
to the song to get all the strumming right in this piece. You also do this
during the lyrics "Lookin' ev'ry bit of a where it's at." and again during
various parts of the song.


_____________________________________________________________________________

[ Tab from: http://www.guitartabs.cc/tabs/t/tesla/lady_luck_tab.html ]
  (When lyrics come in) - You also do this when the solo kicks in.
 |     2A      |
e|-------------|-------------------------------------------------------------|
B|-------------|-------------------------------------------------------------|
G|-------------|-------------------------------------------------------------|
D|-5-7-----3-1-|--9-7-9------------------------------------------------------|
A|-5-7-----3-1-|--9-7-9------------------------------------------------------|
E|-------------|-------------------------------------------------------------|
        ^
Do 2A three times

_____________________________________________________________________________


 "Lady Luck"  "Took a walk"
e|----------|---------------|------------------------------------------------|
B|----------|---------------|------------------------------------------------|
G|----------|---------------|------------------------------------------------|
D|6-7-8-xxxx|-9-10-11-xxxx--|-0-7-5-3----------------------------------------|
A|6-7-8-xxxx|-9-10-11-xxxx--|-0-7-5-3----------------------------------------|
E|----------|---------------|------------------------------------------------|

_____________________________________________________________________________


  "As hard as it seems"  "But not hard to believe"  "What can it mean?"
e|---------------------|---------------------------|-------------------------|
B|---------------------|---------------------------|-------------------------|
G|---------------------|---------------------------|-------------------------|
D|-9-10-9-7-9----------|-9-7-9-10-9-7-9------------|-10-9-7-9----------------|
A|-9-10-9-7-9(ring)----|-9-7-9-10-9-7-9(ring)------|-10-9-7-9----------------|
E|---------------------|---------------------------|-------------------------|

  "Guess Im on a losing streak"
e|---------------------------------------------------------------------------|
B|---------------------------------------------------------------------------|
G|---------------------------------------------------------------------------|
D|12-------------------------------------------------------------------------|
A|12(ring)-------------------------------------------------------------------|
E|---------------------------------------------------------------------------|

_____________________________________________________________________________

Well, Thats it. Its a easy song once you listen to it a couple times while
your playing. Enjoy!


| /  slide up
| \  slide down
| h  hammer-on
| p  pull-off
| ~  vibrato
| +  harmonic
| x  Mute note
=============================================================================
Comments