Terrorvision - Urban Space Crime Chords & Tabs

 

Urban Space Crime Chords & Tabs

Terrorvision Chords & Tabs

Version: 1 Type: Tab 0 ratings
1 star 2 stars 3 stars 4 stars 5 stars
comments

Urban Space Crime Tab

-------------------------------------------------------------------------------
			     urban space crime - terrorvision
-------------------------------------------------------------------------------
Tabbed by:Stuart Honeyman
Email:Stuart_honeyman@hotmail.com

Tuning:standard
guitar 1: do this 8 times
e|---------------------------------------------------------------------------|
B|---55-88-55----------------------------------------------------------------|
G|77-------------------------------------------------------------------------|
D|---------------------------------------------------------------------------|
A|---------------------------------------------------------------------------|
E|---------------------------------------------------------------------------|
guiar 2:repeat 8 times
e|-----------------------------------------------------------------------------|
B|-----------------------------------------------------------------------------|
G|----22-55-22-----------------------------------------------------------------|
D|-55--------------------------------------------------------------------------|
A|-----------------------------------------------------------------------------|
E|-----------------------------------------------------------------------------|
there is only one guitar here:
the 2 and 0's are palm muted
e|-----------------------------------------------------------------------------|
B|-----------------------------------------------------------------------------|
G|-----------------------------------------------------------------------------|
D|2-2--4-55-2-4---2-2--5-4~----------------------------------------------------|
A|-----------------------------------------------------------------------------|
E|-0-0--------------0-0--------------------------------------------------------|
the next bit is:
e|------------------------------------------------------------------------------|
B|-5-88----5-88-----------------------------------------------------------------|
G|-4-77.57-4-77..54-------------------------------------------------------------|
D|-2-55.57-2-55..54-------------------------------------------------------------|
A|------35------32--------------------------------------------------------------|
E|------------------------------------------------------------------------------|
thats the inrto

"ode to the guy..."
x3                        4th time play this
e|-------------|------------------------|
B|------8-8---..|101010-----------------|
G|------7-7---|-9-9-9-------------------|
D|------5-5---|-7-7-7-------------------|
A|------------|-------------------------|
E|0-0-0-------|-------------------------|
x3                        4th time play this
e|-------------|------------------------|
B|------8-8---..|-----------------------|
G|------7-7---|-555---------------------|
D|------5-5---|-555---------------------|
A|------------|-333---------------------|
E|0-0-0-------|-------------------------|
do that twice then:
e|------------------------------------------------------------------------------|
B|-5-88----5-88-----------------------------------------------------------------|
G|-4-77.57-4-77..54-------------------------------------------------------------|
D|-2-55.57-2-55..54-------------------------------------------------------------|
A|------35------32--------------------------------------------------------------|
E|------------------------------------------------------------------------------|
x3                        4th time play this
e|-------------|------------------------|
B|------8~----..|101010-----------------|
G|------7~----|-9-9-9-------------------|
D|------5~----|-7-7-7-------------------|
A|------------|-------------------------|
E|0-0-0-------|-------------------------|
x3                        4th time play this
e|-------------|--------------------------|
B|------8~----..|-------------------------|
G|------7~----|-444555--------------------|
D|------5~----|-444555--------------------|
A|------------|-222333--------------------|
E|0-0-0-------|---------------------------|
[ Tab from: http://www.guitartabs.cc/tabs/t/terrorvision/urban_space_crime_tab.html ]
e|------------------------------------------------------------------------------|
B|-5-88----5-88-----------------------------------------------------------------|
G|-4-77.57-4-77..54-------------------------------------------------------------|
D|-2-55.57-2-55..54-------------------------------------------------------------|
A|------35------32--------------------------------------------------------------|
E|------------------------------------------------------------------------------|
guitar 2: comesiin after 2
e|-----------------------------------------------------------------------------|
B|---5-8p7---5-8p7--5-8p7--5-8p7-----------------------------------------------|
G|-7-------7-------7------7----------------------------------------------------|
D|-----------------------------------------------------------------------------|
A|-----------------------------------------------------------------------------|
E|-----------------------------------------------------------------------------|
guitar 1:
e|---------------------------------------------------------------------------------|
B|-121212--------------------------------------------------------------------------|
G|-111111--------------------------------------------------------------------------|
D|-9-9..8.......-------------------------------------------------------------------|
A|---------------------------------------------------------------------------------|
E|---------------------------------------------------------------------------------|
guitar 2:
e|---------------------------------------------------------------------------------|
B|-11----11----11---------14----14----14-------------------------------------------|
G|-13b15-13b15-13b15.......-16b18-16b18-16b18--------------------------------------|
D|---------------------------------------------------------------------------------|
A|---------------------------------------------------------------------------------|
E|---------------------------------------------------------------------------------|

e|-------------|------------------------|
B|------8~----..|101010-----------------|
G|------7~----|-9-9-9-------------------|
D|------5~----|-7-7-7-------------------|
A|------------|-------------------------|
E|0-0-0-------|-------------------------|
x3                        4th time play this
e|-------------|--------------------------|
B|------8~----..|-------------------------|
G|------7~----|-444555--------------------|
D|------5~----|-444555--------------------|
A|------------|-222333--------------------|
E|0-0-0-------|---------------------------|

e|-----------------------------------------------------------------------------|
B|-5---888888------------------------------------------------------------------|
G|-4---777777------------------------------------------------------------------|
D|-2---5555555-----------------------------------------------------------------|
A|-----------------------------------------------------------------------------|
E|-----------------------------------------------------------------------------|

e|------------------------------------------------------------------------------|
B|-5-88----5-88-----------------------------------------------------------------|
G|-4-77.57-4-77..54-------------------------------------------------------------|
D|-2-55.57-2-55..54-------------------------------------------------------------|
A|------35------32--------------------------------------------------------------|
E|------------------------------------------------------------------------------|
outro:
e|-----------------------------------------------------------------------------|
B|-----------------------------------------------------------------------------|
G|-----------------------------------------------------------------------------|
D|2-2--4-55-2-4---2-2--5-4~----------------------------------------------------|
A|-----------------------------------------------------------------------------|
E|-0-0--------------0-0--------------------------------------------------------|
2nd guitar part for the outro do each one many many times until end.
e|---------12--------------------------------------------------------------------|
B|-12------15b17-----------------------------------------------------------------|
G|-14b16-------------------------------------------------------------------------|
D|-------------------------------------------------------------------------------|
A|-------------------------------------------------------------------------------|
E|-------------------------------------------------------------------------------|
Comments