Terrorvision - Stop The Bus Chords & Tabs

 

Stop The Bus Chords & Tabs

Terrorvision Chords & Tabs

Version: 1 Type: Bass Tab 0 ratings
1 star 2 stars 3 stars 4 stars 5 stars
comments

Stop The Bus Bass Tab

From: Marc Stephen Webster 
Subject: TERRORVISION: Stop the bus

And another TV btab.

Bass tab for Stop the bus by Terrorvision


Intro

G|---------------------------------------------------------|
D|--------8-9----8-9-8-------8-9----8-9-8------------------|
A|---------------------9------------------9----------------|
E|-15-/-7------7-----------7------7---------8-8-8-8-7-7-6--|

G|-------------------|        |-----------------|
D|---8-9----8-9-8----| play 3 |-----------------|
A|----------------9--| times  |-----------------|
E|-7------7----------|        |-8-8-8-8-9-9-10--|



Verse
[ Tab from: http://www.guitartabs.cc/tabs/t/terrorvision/stop_the_bus_btab.html ]
G|----------------------------------------|
D|----------------------------------------|
A|-----------------5-7--------------------|
E|-5-7-5-7-5-7-5-7-----5-7-5-7-5-7-5-7-0--| Keep repeating




Chorus (1st and 3rd)

G|-------------------|        |----------------|
D|---8-9----8-9-8----| play 3 |----------------|
A|----------------9--| times  |----------------|
E|-7------7----------| then:  |-8-8-8-8-7-7-6--|

G|-------------------|        |-----------------|
D|---8-9----8-9-8----| play 3 |-----------------|
A|----------------9--| times  |-----------------|
E|-7------7----------| then:  |-8-8-8-8-9-9-10--|



Guitar solo/2nd chorus

G|--------------------|            |---------------|
D|--------------------|   keep     |---------------|
A|--------------------| repeating  |-7---5---------|
E|-5-7---5-7---5-5----|   then:    |---------7---3-|


That's about it.

NOTATION:   /   Slide then pick second note

See ya.

Comments