Terrorvision - Problem Solved Chords & Tabs

 

Problem Solved Chords & Tabs

Terrorvision Chords & Tabs

Version: 1 Type: Tab 0 ratings
1 star 2 stars 3 stars 4 stars 5 stars
comments

Problem Solved Tab

-------------------------------------------------------------------------------
			     Problem solved - terrorvision
-------------------------------------------------------------------------------
Tabbed by:Stuart Honeyman
Email:Stuart_honeyman@hotmail.co.uk

Tuning:standard tuning

Intro:
Repat twice
e|-----------------------------------------------------------------------------|
B|-----------------------------------------------------------------------------|
G|-----------------------------------------------------------------------------|
d|-5--555--5-555---------------------------------------------------------------|
a|-5--555--5-555---------------------------------------------------------------|
E|-3--333--3-333---------------------------------------------------------------|

Rythym(repeat 4 times)
e|---------------------------------------------------------------------------|
B|---------------------------------------------------------------------------|
G|---------------------------------------------------------------------------|
D|.2-5-7-2-7-5---------------------------------------------------------------|
A|.2-5-7-2-7-5---------------------------------------------------------------|
E|-0-3-5-0-5-3---------------------------------------------------------------|
lead(comes in after four rythym bits) with waa(they are twelves)(they are al full bends 
to the octave)
e|-----------------------------------------------------------------------------|
B|.-5---55--5-55-5--55--5-5-5--12-----12--12--12--12--12--12--12--12---12------|
G|-7b9-77-7--77-7--77--7-7-7--14b16--14b-14b-14b-14b-14b-14b-14b-14b--14b------|
D|-----------------------------------------------------------------------------|
A|-----------------------------------------------------------------------------|
E|-----------------------------------------------------------------------------|
rythym(repat 8 times)
e|-----------------------------------------------------------------------------|
B|-----------------------------------------------------------------------------|
G|-----------------------------------------------------------------------------|
D|-----------------------------------------------------------------------------|
A|2-3-2-0----------------------------------------------------------------------|
E|-----------------------------------------------------------------------------|
lead(comes in after four rythym bits)
e|---------------------------------------------------------------------------|
B|--4-5-4-2------------------------------------------------------------------|
G|---------------------------------------------------------------------------|
D|---------------------------------------------------------------------------|
A|---------------------------------------------------------------------------|
E|---------------------------------------------------------------------------|
rythym
e|------------------------------------------------------------------------------|
B|------------------------------------------------------------------------------|
G|------------------------------------------------------------------------------|
D|11.7-11-7---------------------------------------------------------------------|
A|11.7-11-7---------------------------------------------------------------------|
E|-9-5-9--5---------------------------------------------------------------------|
lead(arpeggiates follwing the rythym powerchords)
e|------------------------------------------------------------------------------|
B|------------------------------------------------------------------------------|
G|-------9----5----9---5--------------------------------------------------------|
D|----11----7----11--7----------------------------------------------------------|
A|--11-----7---11---7-----------------------------------------------------------|
E|-9------5---9----5------------------------------------------------------------|
lead(this bit is confusing and may be in correct but it sounds fine..i think)
e|-----------------------------------------------------------------------------|
B|--5-666-5-666-5--------------------------------------------------------------|
G|-----------------------------------------------------------------------------|
D|-----------------------------------------------------------------------------|
A|-----------------------------------------------------------------------------|
E|-----------------------------------------------------------------------------|
rythym
e|-----------------------------------------------------------------------------|
B|-----------------------------------------------------------------------------|
G|-----------------------------------------------------------------------------|
D|-7-88-7-5-7 887 5------------------------------------------------------------|
A|-----------------------------------------------------------------------------|
E|-----------------------------------------------------------------------------|

back to :
rythym
e|------------------------------------------------------------------------------|
B|------------------------------------------------------------------------------|
G|------------------------------------------------------------------------------|
D|11.7-11-7---------------------------------------------------------------------|
A|11.7-11-7---------------------------------------------------------------------|
E|-9-5-9--5---------------------------------------------------------------------|
lead(arpeggiates follwing the rythym powerchords)
e|------------------------------------------------------------------------------|
B|------------------------------------------------------------------------------|
G|-------9----5----9---5--------------------------------------------------------|
D|----11----7----11--7----------------------------------------------------------|
A|--11-----7---11---7-----------------------------------------------------------|
E|-9------5---9----5------------------------------------------------------------|

the next we bit is(twelves not 1's and 2's)
[ Tab from: http://www.guitartabs.cc/tabs/t/terrorvision/problem_solved_tab.html ]
e|12-12-12--12--------------------------------------------|
B|12-12-12--12--------------------------------------------|
G|12-12-12--12--------------------------------------------|
D12|-12-12--12--------------------------------------------|
A|--------------------------------------------------------|
E|--------------------------------------------------------|
lead(don't wanna know about it don't wanna think about it....
e|-------------------------------------------------|----------------------------|
B|--5-66-5-3-5---5-66-5-3-5---5-66-5-3-5----------------------------------------|
G|------------------------------------------99999-------------------------------|
D|------------------------------------------99999-------------------------------|
A|------------------------------------------77777-------------------------------|
E|------------------------------------------------------------------------------|
rythym(second tiime round
e|-----------------------------------------------------------------------------|
B|-----------------------------------------------------------------------------|
G|--9/10-----------------------------------------------------------------------|
D|2-9/10-----------------------------------------------------------------------|
A|2-7/8----------------------------------------------2-3-2-0-------------------|
E|0----------------------------------------------------------------------------|

back to:
rythym
e|------------------------------------------------------------------------------|
B|------------------------------------------------------------------------------|
G|------------------------------------------------------------------------------|
D|11.7-11-7---------------------------------------------------------------------|
A|11.7-11-7---------------------------------------------------------------------|
E|-9-5-9--5---------------------------------------------------------------------|
lead(arpeggiates follwing the rythym powerchords)
e|------------------------------------------------------------------------------|
B|------------------------------------------------------------------------------|
G|-------9----5----9---5--------------------------------------------------------|
D|----11----7----11--7----------------------------------------------------------|
A|--11-----7---11---7-----------------------------------------------------------|
E|-9------5---9----5------------------------------------------------------------|

e|-----------------------------------------------------------------------------|
B|--5-666-5-666-5--------------------------------------------------------------|
G|-----------------------------------------------------------------------------|
D|-----------------------------------------------------------------------------|
A|-----------------------------------------------------------------------------|
E|-----------------------------------------------------------------------------|
rythym
e|-----------------------------------------------------------------------------|
B|-----------------------------------------------------------------------------|
G|-----------------------------------------------------------------------------|
D|-7-88-7-5-7 887 5------------------------------------------------------------|
A|-----------------------------------------------------------------------------|
E|-----------------------------------------------------------------------------|


the next we bit is(twelves not 1's and 2's)
waa waa
e|12-12-12--12--------------------------------------------|
B|12-12-12--12--------------------------------------------|
G|12-12-12--12--------------------------------------------|
D12|-12-12--12--------------------------------------------|
A|--------------------------------------------------------|
E|--------------------------------------------------------|

lead(don't wanna know about it don't wanna think about it....
e|-------------------------------------------------|----------------------------|
B|--5-66-5-3-5---5-66-5-3-5---5-66-5-3-5----------------------------------------|
G|------------------------------------------99999-------------------------------|
D|------------------------------------------99999-------------------------------|
A|------------------------------------------77777-------------------------------|
E|------------------------------------------------------------------------------|
rythym(second tiime round
e|-----------------------------------------------------------------------------|
B|-----------------------------------------------------------------------------|
G|--9/10-----------------------------------------------------------------------|
D|2-9/10-----------------------------------------------------------------------|
A|2-7/8----------------------------------------------2-3-2-0-------------------|
E|0----------------------------------------------------------------------------|

e|-----------------------------------------------------------------------------|
B|.-5---55--5-55-5--55--5-5-5--12-----12--12--12--12--12--12--12--12---12------|
G|-7b9-77-7--77-7--77--7-7-7--14b16--14b-14b-14b-14b-14b-14b-14b-14b--14b------|
D|-----------------------------------------------------------------------------|
A|-----------------------------------------------------------------------------|
E|-----------------------------------------------------------------------------|

e|-------------------------------------------------|----------------------------|
B|--5-66-5-3-5---5-66-5-3-5---5-66-5-3-5----------------------------------------|
G|------------------------------------------99999-------------------------------|
D|------------------------------------------99999-------------------------------|
A|------------------------------------------77777-------------------------------|
E|------------------------------------------------------------------------------|
rythym(second tiime round
e|-------------------------------------------------------------------------------|
B|-------------------------------------------------------------------------------|
G|--9/10-------------------------------------------------------------------------|
D|2-9/10---------------------------------------------xxx-------------------------|
A|2-7/8----------------------------------------------xxx-------------------------|
E|0--------------------------------------------------xxx-------------------------|

Rythym(repeat 8 times)
e|-----------------------------------------------------------------------------|
B|-----------------------------------------------------------------------------|
G|-----------------------------------------------------------------------------|
D|.2-5-7-2-7-5-----------------------------------------------------------------|
A|.2-5-7-2-7-5-----------------------------------------------------------------|
E|-0-3-5-0-5-3-----------------------------------------------------------------|
|------------------------------------------------------------------------------|
B|-----------------------------------------------------------------------------|
G|-----------------------------------------------------------------------------|
d|-5--555--5-555---------------------------------------------------------------|
a|-5--555--5-555---------------------------------------------------------------|
E|-3--333--3-333---------------------------------------------------------------|

e|-----------------------------------------------------------------------------|
B|.-5---55--5-55-5--55--5-5-5--------------------------------------------------|
G|-7b9-77-7--77-7--77--7-7-7b9-------------------------------------------------|
D|-----------------------------------------------------------------------------|
A|-----------------------------------------------------------------------------|
E|-----------------------------------------------------------------------------|
Comments