Terrorvision - Pretend Best Friend Chords & Tabs

 

Pretend Best Friend Chords & Tabs

Terrorvision Chords & Tabs

Version: 1 Type: Bass Tab 0 ratings
1 star 2 stars 3 stars 4 stars 5 stars
comments

Pretend Best Friend Bass Tab

Bass tab for Pretend Best Friend by Terrorvision


Intro

G|------------------------------------------------------------------------|
D|------------------------------------------------------------------------|
A|-12-/-0--0-0-0-0-0-0-----------------0-0-0-0-0-0-0-0---------7----------|
E|---------------------0-0-0-0-0-0-0-0-----------------0-0-8-9----8-7-6---|


Verse

G|---------------------------------|
D|-----------------2-2-------------|
A|---------2-2---------3-3-2-2-----|
E|-0-0-3-0-----3-2-------------3-3-|  Repeat four times


Chorus

G|-----------------------------------|
D|-----------------------------------|
A|-0-(0)-8-9-0-0-8-9---------7-------| Repeat (omit (0) first time only)
E|-------------------0-0-8-9---8-7-6-| ie- play whole E note 1st time,then 2x8th


Call...

G|------------------------------------------|
D|------------------------------------------|
A|------------------------------------------|
E|-5-/-10-/-3-/-8-7----5-5-/-10-/-3-3-/-8-7-|

You call...
[ Tab from: http://www.guitartabs.cc/tabs/t/terrorvision/pretend_best_friend_btab.html ]
G|------------7-5-------------------------|
D|----7-5---------7-5--3-2--5-{-3--(2)-}--|
A|--------7-5-----------------------------|
E|-5--------------------------------------| Play twice; (-2-) first time only

And before guitar solo replace {-3--2-} with -3-3-3-3-2-2-2-2-


Guitar solo

G|-----------------------------------------------------------------------|
D|-----------------------------------------------------------------------|
A|-----------------------------------------------------------------------|
E|-5-5-5-5-5-5-5--/-10-10-10-10-10-10-10--/-3-3-3-3-3-3-3--/-8-8-8-7-7-7-|

Repeat a few times then:    A|--0-0--------|
                            E|---------0-0-|  Twice


Outro bit:

Play chorus part again and again except 4th time play:

G|--------------------------------|
D|--------------------------------|
A|-0-0-8-9-0-0-8-9----------------|
E|----------------0-0-2-2-3-3-4-4-| 

And 8th (last) time play:

G|------------------------------------|
D|------------------------------------|
A|-0-0-8-9-0-0-8-9--------------------|
E|----------------0-0-2-2-3-3-4-4-5---|




NOTATION:   /   Slide and pick second note

Comments