Terrorvision - Middleman Chords & Tabs

 

Middleman Chords & Tabs

Terrorvision Chords & Tabs

Version: 1 Type: Bass Tab 0 ratings
1 star 2 stars 3 stars 4 stars 5 stars
comments

Middleman Bass Tab

   
From: Marc Stephen Webster 


Bass tab for Middleman by Terrorvision


Intro

G|---------------------------------------------------------------------|
D|----------------------3-3-3-3-6-6-5-5-----------------3-3-3-2--------|
A|-11-/-3-3-3-3-5-5-5-5-----------------3-3-3-3-5-5-5-5----------3-2-1-|
E|---------------------------------------------------------------------|


Verse

G|------------------------------------------------------|
D|----------------------3-3--3--------------------------|
A|-0-0--0-3-3--3-5-5--5--------0-0--0-3-3--3-5-5--5-----|
E|--------------------------------------------------0-0-|

G|--------------------------------------------------------|
D|----------------------3-3--3----------------------------|
A|-0-0--0-3-3--3-5-5--5--------0-0--0-3-3--3-2-0------0-2-|
E|-----------------------------------------------3-0------|

Play through twice for fist verse, once for others.


Chorus

G|-------------------------------------------------------------------------|
D|-----------3--3--------------------3--3----------------------------------|
A|-3--3-5--5---------------3--3-5--5----------2---3-3--3-5--5--------------|
E|----------------4-4-3-3-----------------4-4---3-------------1--1-4-4-3-3-|

Then:
[ Tab from: http://www.guitartabs.cc/tabs/t/terrorvision/middleman_btab.html ]
G|-------------------------|
D|-----------3-3-3-2-------|
A|-3--3-5--5---------3-2-1-|
E|-------------------------|   Into verse again

Or:

G|---------------------------|
D|-----------3-3-3-3-3-3-2-2-|
A|-3--3-5--5-----------------|
E|---------------------------| Into next bit....



But now we're in this thing together.....

G|-------------------------------------------------7----7---7-|
D|----------5----------------------7-----7-7----------7---7---|
A|-3--3-5\7---7--2--2-2----------5---5-------5--5-------------|
E|----------------------3--3-3-3------------------------------|

G|---------------------------------------------------|
D|----------5----------------------7-7---7-7---------|
A|-3--3-5\7---7--2--2-2-0--0-0-5-5-----5--5--5-7-7-7-|
E|---------------------------------------------------|


The rest is easy to work out:

Similar to verse riff (You left me all alone...)

C C C C D D D D F F F F  then either 4 4 3 3  
                                  or 4 4 6 6  on E string (Outro bit)

Then finally:  

G|----------------------|
D|-3-3-3----3-3-3-2-----|
A|------------------3---|
E|----------------------|


NOTATION USED:   /    slide (pick second note)
                 \    slide (don't pick second note)


Comments