Terrorvision - Alice Whats The Matter Chords & Tabs

 

Alice Whats The Matter Chords & Tabs

Terrorvision Chords & Tabs

Version: 1 Type: Tab 0 ratings
1 star 2 stars 3 stars 4 stars 5 stars
comments

Alice Whats The Matter Tab

-------------------------------------------------------------------------------
			     Alice what's the matter - terrorvision
-------------------------------------------------------------------------------
Tabbed by:Stuart Honeyman
Email:Stuart_honeyman@hotmail.co.uk

eassy song, fun to play change the solo to whatever you want, just play from B minor pentatonic.
Tuning:standard
intro:palm mute
e|-----------------------------------------------------------------------------|
B|-----------------------------------------------------------------------------|
G|-----------------------------------------------------------------------------|
D|-7777-8888-------------------------------------------------------------------|
A|-5555-5555---------------------------------------------------910-------------|
E|--------------------------------------------------------------78-------------|
verse:lead
e|-----------------------------------------------------------------------------|
B|-----------------------------------------------------------------------------|
G|-----------7-9----------7-9--------7-9---------7-9---------------------------|
D|-9-----7-9-----9----7-9-----9--7-9-----9--7-9--------------------------------|
A|-----------------------------------------------------------------------------|
E|-----------------------------------------------------------------------------|
rythym(there might be a guitar following the bass im not sure, herse how i think it goes)(arpegiate it)
e|---------------------------------|
B|---------------------------------|
G|---------------------------------|
D|-4-2--------0-2------------------|
A|-2-0-5--0-2----------------------|
E|-----3---------------------------|
chorus:repeat 3 x e|---------------|
B|-------7----7-----7----7---7-----|
G|-------9b11-9b11-9b11-9b11-9b11--|
D|2--5-----------------------------|
A|2--5-----------------------------|
E|0--3-----------------------------|
(the second time do a run down this:
e|---------------------------------------------------------------------------|
B|--7-----7------------------------------------------------------------------|
G|--9b11---9-7---------------------------------------------------------------|
D|-------------9-7-----------------------------------------------------------|
A|-----------------9---------------------------------------------------------|
E|---------------------------------------------------------------------------|
[ Tab from: http://www.guitartabs.cc/tabs/t/terrorvision/alice_whats_the_matter_tab.html ]
on the last time play
e|-------------------------------------------------------------------------------|
B|-------12-----12----12----12----12---------------------------------------------|
G|-------14b16-14b16-14b16-14b16-14b16-------------------------------------------|
D|2--5---------------------------------------------------------------------------|
A|2--5---------------------------------------------------------------------------|
E|0--3---------------------------------------------------------------------------|
solo: play this twice
e|------------------------------------------------------------------------------|
B|-7-----------------------------------.77-7------------------------------------|
G|-9b11-9(11)9(119(119(11)--11-9-7--7---77-7------------------------------------|
D|--------------------------------9--9---9--------------------------------------|
A|------------------------------------------------------------------------------|
E|------------------------------------------------------------------------------|
solo continued:
e|---------------------------------------------------------------------------------|
B|-7----(do that for a whol section..then:-12----12-----12----12-------------------|
G|-9b11-----------------------------14b16-14b16--14b16-14b16-----------------------|
D|---------------------------------------------------------------------------------|
A|---------------------------------------------------------------------------------|
E|---------------------------------------------------------------------------------|
chorus:version 2
e|-----------------------------------------------------------------------------|
B|-----------------------------------------------------------------------------|
G|-----------------------------------------------------------------------------|
D|22--55---xxxx-xxxx-----------------------------------------------------------|
A|22--55---xxxx-xxxx-----------------------------------------------------------|
E|00--33---xxxx-xxxx-----------------------------------------------------------|
outro:lead, in the back ground
e|-------------------------------------12-----14------------------------------------|
B|-12---------------------12----15-----15b17-17b19----------------------------------|
G|-14b16(losts of times, then:-14b16-17b19------------------------------------------|
D|----------------------------------------------------------------------------------|
A|----------------------------------------------------------------------------------|
E|----------------------------------------------------------------------------------|

e|-----------------------------------------------------------------------------|
B|-----------------------------------------------------------------------------|
G|-----------------------------------------------------------------------------|
D|-7777-8888-------------------------------------------------------------------|
A|-5555-5555---------------------------------------------------910-------------|
E|--------------------------------------------------------------78-------------|

e|-----------------------------------------------------------------------------|
B|-----------------------------------------------------------------------------|
G|-----------------------------------------------------------------------------|
D|-7777-8888-------------------------------------------------------------------|
A|-5555-5555-------------------------------------------------------------------|
E|-----------------------------------------------------------------------------|
Comments