Tenor7 - Call The Cops Chords & Tabs

 

Call The Cops Chords & Tabs

Tenor7 Chords & Tabs

Version: 1 Type: Tab 0 ratings
1 star 2 stars 3 stars 4 stars 5 stars
comments

Call The Cops Tab

Call the Cops  Tenor7

Intro:
E----------------------------------------------------------------
B----------------------------------------------------------------
G----------------------------------------------------------------
D-10-10-----8-8-----6---6-5--5-5-5-------------------------------
A-10-10-----8-8-----6---6-5--5-5-5-------------------------------
E--8--8-----6-6-----4---4-3--3-3-3-------------------------------

Preverse:
E----------------------------------------------------------------
B----------(Detatched)-------------------------------------------
G----------------------------------------------------------------
D-10----------8-----------6------------5-------------------------
A-10----------8-----------6------------5------(Repeat twice)-----
E--8----------6-----------4------------3-------------------------

Verse:
E----------------------------------------------------------------
B----------------------------------------------------------------
G----------------------------------------------------------------
D-10-10-10-10-8-8-8-8-6-6-6-6-5-5-5-5----------------------------
A-10-10-10-10-8-8-8-8-6-6-6-6-5-5-5-5----------------------------
E--8--8--8--8-6-6-6-6-4-4-4-4-3-3-3-3----------------------------
[ Tab from: http://www.guitartabs.cc/tabs/t/tenor7/call_the_cops_tab.html ]
Chorus:
E----------------------------------|-----------------------------
B----------------------------------|----(hold at very------------
G----------------------------------|-----end of chorus)----------
D-10----10-8----8-6----6---6-6-6---|--5--------------------------
A-10----10-8----8-6----6---6-6-6---|--5--------------------------
E--8-----8-6----6-4----4---4-4-4---|--3--------------------------

Bridge:
E----------------------------------------------------------------
B----------------------------------------------------------------
G----------------------------------------------------------------
D----------------------------------------------------------------
A------6-------5-------3------2----------------------------------
E--8-8---8-6-6---6-4-4--4-3-3---3--------------------------------
This part repeats over and over throughout the bridge

E----------------------------------------------------------------
B----------------------------------------------------------------
G----------------------------------------------------------------
D----------------------------------------------------------------
A-------10----------9--------7-------6---------------------------
E-12-12----12-10-10---10-8-8---8-7-7---7-------------------------
This part joins in with the other part after two times through

E--8----10----11----13--------|-20-20-20-20-20-20-20-20----------
B---8-----8-----8-----8-------|----------------------------------
G-----------------------------|----------------------------------
D-----(play this four times)--|----------------------------------
A-----------------------------|----------------------------------
E-----------------------------|----------------------------------
it's all about the rythms, i tried to show them as best as possible
Comments