Tenacious D - Wonderboy Chords & Tabs

 

Wonderboy Chords & Tabs

Tenacious D Chords & Tabs

Version: 6 Type: Tab

Wonderboy Tab

   
------------------------------------------------------------------------
			     WONDERBOY - Tenacious D
------------------------------------------------------------------------
Tabbed by: Jesse Kennedy

note: this is a pretty cool song, and the solo is great. i had to use windows media
to slow it down[while still preserving the pitch] to get the really fast part figured out.
i did all this on my electric... because it will be incredibly hard to get it down good
acoustic. and also, this is MY way of playing the solo, so althought i'm almost 100% all
right notes are there, i didn't really dedicate too much time to searching for vibrato's
all that. enjoy!


e|---10------10-----10------10--12--12b13r12--10-----------------------|
B|-------10------10----10------------------------10--10h11--10--8--11--|
G|---------------------------------------------------------------------|
D|---------------------------------------------------------------------|
A|---------------------------------------------------------------------|
E|-------------------------------------------------------------------- |

[ Tab from: http://www.guitartabs.cc/tabs/t/tenacious_d/wonderboy_tab_ver_6.html ]
e|----15p14p12--15p14p12--15p14p12--15p14p12--15p14p12--15p14p12-------|
B|---------------------------------------------------------------------|
G|---------------------------------------------------------------------|
D|---------------------------------------------------------------------|
A|---------------------------------------------------------------------|
E|---------------------------------------------------------------------|


e|---15p14p12--15p14p12--17p15p14------14------------------------------|
B|---------------------------------17-----17---15--17--15--13--15--13--|
G|---------------------------------------------------------------------|
D|---------------------------------------------------------------------|
A|---------------------------------------------------------------------|
E|---------------------------------------------------------------------|


e|---------------------------------------------------------------------|
B|---------13-------1313h14--13--------13-----------------------------|
G|----15-------15----------------------------15--14~-------------------|
D|---------------------------------------------------------------------|
A|---------------------------------------------------------------------|
E|---------------------------------------------------------------------|


| /  slide up
|   slide down
| h  hammer-on
| p  pull-off
| ~  vibrato
| +  harmonic
| x  Mute note
=======================================================================