Tenacious D - Wonderboy Chords & Tabs

 

Wonderboy Chords & Tabs

Tenacious D Chords & Tabs

Version: 1 Type: Bass Tab 0 ratings
1 star 2 stars 3 stars 4 stars 5 stars
comments

Wonderboy Bass Tab

Wonderboy

Intro and verse:

G----------------------------------------------------------
D--0—(hold)--/12--------0—(hold)—-/12--7-8-7-0—(hold)------
A----------------0-1-0-------------------------------------
E----------------------------------------------------------

Any part with distorted guitar:
G----------------------------------------------------------
D-0-0-0-0-0-0-0-0------------------------------------------
A----------------4-4-4-4-4-4-4-4-2-2-2-2-2-2-2-2-0-0-0-0---
E----------------------------------------------------------

G----------------------------------------------------------
D-------------0-(hold)-------------------------------------
A-00---000-00----------------------------------------------
E----3-----------------------------------------------------


Chorus:
G----------------------------------------------------------
D-0-(hold)-/12---7-8-7-0-(hold)------0---------------------
A-------------------------0-1-0----------------------------
E----------------------------------------------------------
Wonder boy,               what is the secrtet of your power
[ Tab from: http://www.guitartabs.cc/tabs/t/tenacious_d/wonderboy_btab.html ]
G----------------------------------------------------------
D-0-0-0-0-0-0-0-0------------------------------------------
A-----------------4-4-4-4-4-4-4-4-2-2-2-2-2-2-2-2-0-0-0-0--
E----------------------------------------------------------
Wonderboy,              won’t you take me far away from the 
G----------------------------------------------------------
D------------0—(hold)-------------------------------------- 
A-00--000-00-----------------------------------------------
E—--3------------------------------------------------------
Mucky mucky man

Back to verse

Verse 2 (part with distorted guitar):
G----------------------------------------------------------
D-0-0-0-0-0-0-0-0------------------------------------------
A-----------------4-4-4-4-4-4-4-4-2-2-2-2-2-2-2-2----------
E----------------------------------------------------------



G----------------------------------------------------------
D----------------------------------------------------------
A-0-0-0-0-0-0-0-0------------------------------------------
E-----------------3-3-3-3-3-3-3-3-2-2-2-2-2-2-2-2----------

G----------------------------------------------------------
D----------------------------------------------------------
A-----------------0-(hold)---------------------------------
E-0-0-0-0-0-0-0-0------------------------------------------

Back to verse part

Back to chorus

Solo:
G----------------------------------------------------------
D-0-0-0-0 (a bunch of times)------------------------------- 
A--------------------------4-4-4-4-4-4-4-4-2-2-2-2-2-2-2-2-
E----------------------------------------------------------

G----------------------------------------------------------
D----------0-------0-(hold)--------------------------------
A----0-2-4---4-2-0-----------------------------------------
E--3-------------------------------------------------------

Back to chorus part

Verse 3:
G----------------------------------------------------------
D-0-0-0-0-0-0-(over and over)------------------------------
A----------------------------------------------------------
E----------------------------------------------------------

Back to verse part
Comments