Tenacious D - Tribute To The Best Song In The World Chords & Tabs

 

Tribute To The Best Song In The World Chords & Tabs

Tenacious D Chords & Tabs

Version: 2 Type: Tab 0 ratings
1 star 2 stars 3 stars 4 stars 5 stars
comments

Tribute To The Best Song In The World Tab

no body else can be bothered to tab this so i have tried to figure
the two main solos out.

the first solo is just after the bit with no music
e-------------------------------------------------------------
B-------------------------------------------------------------
G------------5~~~-------------5--5~~---xx-xx--5~~-------------
D-------5h7--------------5h7---------7-xx-xx------7-----------
A--5h7--------------5h7----------------xx-xx------------------
E-------------------------------------------------------------

e----------5--------------------------------------------------
B------------------8b10~~~~-----------------------------------
G------7b8--8r7p5---------------------------------------------
D-------------------------------------------------------------
A-------------------------------------------------------------
E-------------------------------------------------------------

The other solo im tabbing is the very end one after the last words in the song

e--15b17--15b17--15b17---15--13p12--13p12--------17------------
B------------------------------------------15b17----17r15------
G--------------------------------------------------------------
D--------------------------------------------------------------
A--------------------------------------------------------------
E--------------------------------------------------------------
[ Tab from: http://www.guitartabs.cc/tabs/t/tenacious_d/tribute_to_the_best_song_in_the_world_tab_ver_2.html ]
e--------------------------------------------------------------
B--13--13--13--13--12--10--8------8--6--6----6~6-6-------------
G--------------------------------------------------------------
D--------------------------------------------------------------
A--------------------------------------------------------------
E--------------------------------------------------------------

e--------------------------------------------------------------
B----------------------------10--------------------------------
G--------------------------------------------------------------
D-----------------10--12b13-----13r12p10-----------------------
A----------10h12-----------------------------------------------
E---10h12------------------------------------------------------

e--------------------------------------------------------------
B----8------8------8------8------8-------12-----12-----12------
G----10b12--10b12--10b12--10b12--10b12---14b16--14b16--14b16---
D--------------------------------------------------------------
A--------------------------------------------------------------
E--------------------------------------------------------------

e--------------------------------------------------------------
B----12-----12-----16-----16-----16-----16-----16------/0------
G----14b16--14b16--18b20--18b20--18b20--18b20--18b20---/0------
D--------------------------------------------------------------
A--------------------------------------------------------------
E--------------------------------------------------------------

tabbed by Chinky
Comments