Tenacious D - Tribute Chords & Tabs

 

Tribute Chords & Tabs

Tenacious D Chords & Tabs

Version: 1 Type: Tab 0 ratings
1 star 2 stars 3 stars 4 stars 5 stars
comments

Tribute Tab

   
Tenacious D - Tribute

+------------------------------------+
|Chords: A1|x02400|Asus2             |
|        G1|3x2400|Asus2/G           |
|        F1|x03210|Fm7               |
|        F#1|2x0230|Dsus2/F#         |
|        F#2|2x0210|Dm7sus2/F#       |
|        F#3|2x0200|?|Not Quite Sure |
+------------------------------------+

Normal F's & G's should be played using bar chords, [133211] & [355433].
But do not need to be played this way.

Fig 1.
E|-------------0-0-0-0-0-0-----0-------0-0-0-0-0-|
B|-------------1-1-1-1-1-1h3p1p0h1-----1-1-1-1-1-|
G|-----0h2-----2-2-2-2-2-2-----2-------2-2-2-2-2-|
D|-0h2-------2-2-2-2-2-2-2-----2-----2-2-2-2-2-2-|
A|---------0---0-0-0-0-0-----------0---0-0-0-0-0-|
E|-----------------------------------------------|

Figure 1 is played repeatedly over this:

Me and my brother Kyle here, we were hitchhiking down,
A long and lonesome road, all of a sudden there shined,
A shiny demon, in the middle of the road. And he said

Play the best song in the world, or i'll eat your soul [soul]

E|-------------------------------------------------------------|
B|-------------------------------------------------------------|
G|-------------------------------------------------------------|
D|-------------------------------------------------------------|
A|-0-0-0-0-0-0-0-0-0-0-0-0-0-0-0-0-0-0-0-0-0-0-0-0-0-0-0-0-0-0-|
E|-------------------------------------------------------------|
 PM. . . . . . . . . . . . . . . . . . . . . . . . . . . .

            Well me and Kyle         We looked at eachother
E|-----------0-0-0-0-0-0-0-----0-------0-0-0-0-0-0-|
B|-----------1-1-1-1-1-1-1h3p1p0h1-----1-1-1-1-1-1-|
G|-2---2-----2-2-2-2-2-2-2-----2-------2-2-2-2-2-2-|
D|-0h2-0h2---2-2-2-2-2-2-2-----2-------2-2-2-2-2-2-|
A|-0---0---0-0-0-0-0-0-0-0-----------0-0-0-0-0-0---|
E|-------------------------------------------------|

            And we each said         Okay
E|-----------0-0-0-0-0-0-0-------------0-0-0-0-0-0-|
B|-----------1-1-1-1-1-1-1-------------1-1-1-1-1-1-|
G|-2---2-----2-2-2-2-2-2-2-2---2-------2-2-2-2-2-2-|
D|-0h2-0h2---2-2-2-2-2-2-2-0h2-0h2-----2-2-2-2-2-2-|
A|-0---0---0-0-0-0-0-0-0-0-2---0-----0-0-0-0-0-0-0-|
E|-------------------------------------------------|

       
[ Tab from: http://www.guitartabs.cc/tabs/t/tenacious_d/tribute_tab.html ]
And it saved our butts                  because the demon would've killed us oh   
E|---------------------5-7-----7-8-----8-2-----2--0-0-0-0-0-0-0-0-0-|
B|-------------------5-----5-------5-------3------1-1-1-1-1-1-1-1-1-|
G|-----------------5---------5-------5-------2----2-2-2-2-2-2-2-2-2-|
D|---------------7-----7-6-----6-5-----5-4-----4--3-3-3-3-3-3-3-3-3-|
A|------------------------------------------------------------------|
E|------------------------------------------------------------------|

                  But he was forced
                          Set us free by the
                                  Honor code that
                                          Demons                   have to

E|---0-0-0------------5-------7-------8-------2------0-0-0-0-0-0-0-0-0-0-0-|
B|---1-1-1-----------5-5-----5-5-----5-5-----3-3-----1-1-1-1-1-1-1-1-1-1-1-|
G|-2-2-2------------5---5---5---5---5---5---2---2----2-2-2-2-2-2-2-2-2-2-2-|
D|-3-2-2-----------7-----7-6-----6-5-----5-4-----4-3-3-3-3-3-3-3-3-3-3-3-3-|
A|-3-0-0---0-4/8-7---------------------------------------------------------|
E|-1-----------------------------------------------------------------------|

   Live by       cause it's Satans surprise and it's magic      and it's a

E|---0-0-0-0-0-0-0-0-0-0-0-3----------------0--------0-0-------0-|
B|---1-1-1-1-1-1-1-1-1-1-1-1----------------1--------3-3-------3-|
G|-2-2-2-2-2-2-2-2-2-2-2-2-0----------------0--------2-2-------2-|
D|-3-2-2-2-2-2-2-2-2-2-2-2-2----------------2--------0-0-------0-|
A|-3-0-0-0-0-0-0-0-0-0-0-0-0----------------0--------------------|
E|-1-------------------------------------------------------------|

   Mystical disguise     butthegerero    the devils song

E|-3--------0------7---5---3---5-5-x-x-3------------0-|
B|-1--------1------8---7---5---7-7-x-x-1------------1-|
G|-0--------0------9---7---5---7-7-x-x-0------------0-|
D|-2--------2------0-0-0-0-0-0-0-0-x-x-2------------2-|
A|-0--------0--------------------------0------------0-|
E|----------------------------------------------------|

   And it's tragic      you are the mystical ide - ver - gin   and you're

E|----------0-2---------3----------------0---7-----5-----3-x-5-5-x-x-|
B|----------3-3---------1----------------1---8-----7-----5-x-7-7-x-x-|
G|----------2-2---------0----------------0---9--9--7-----5-x-7-7-x-x-|
D|----------0-0---------2----------------2---0--0--0-----0---0-0-x-x-|
A|----------------------0----------------0---------------------------|
E|-------------------------------------------------------------------|

   Rocking             *Down Sweep

E|-----0-0-0-----0-0-0-0------|
B|-----1-1-1-----3-3-3-1------|
G|---0-0-0-0---0-0-0-0-2------|
D|-2-2---2-2-0-0---0-0-2------|
A|-3---------2---------0------|
E|----------------------------|

Play Fig 1 repeatedly behind this verse below

(Well needless to say, the best was stunned,,,ect)


D        F        C        G        
Hiiiiiiiiiiiiiiiiiiiiiiiiiiiiiiiiiiii


End riff:

E|-----0----------------|
B|-------0-------0------|
G|---5-----5---5--------|
D|-7---------7------7^--|
A|-0---------0----------|
E|----------------------|

Thankyou and good luck with the song,

Sam Hands.
Comments