Tenacious D - The Divide Chords & Tabs

 

The Divide Chords & Tabs

Tenacious D Chords & Tabs

Version: 2 Type: Tab

The Divide Tab

-------------------------------------------------------------------------------|
--------------7----------------------------------------------------------------|
----8-----7-9-7-------7---7---6----------7-------9-9-9-6-6-6-6-6-8-8-x-9-9-x-8-|
-9--9-----7-9---9-7---7---7---7-9-7--7-9---9-7-9-9-9-9-7-7-7-7-7-9-9-x-9-9-x-9-|
-9--9-9-9-----------0---0---0---9---9------------7-7-7-7-7-7-7-7-9-9-x-7-7-x-9-|
-7--7-7-7----------------------------------------0-0-0-5-5-5-5-5-7-7-x-7-7-x-7-|




---x-------|
---x-------|
-8-x-9-9-8-|
-9-x-9-9-9-|
-9-x-7-7-9-|
-7-x-7-7-7-|


That's it. My first Tab. So, please don't be hard to me. : D
Have fun with it.
[ Tab from: http://www.guitartabs.cc/tabs/t/tenacious_d/the_divide_tab_ver_2.html ]