Tenacious D - Sex Supreme Chords & Tabs

 

Sex Supreme Chords & Tabs

Tenacious D Chords & Tabs

Version: 1 Type: Tab 0 ratings
1 star 2 stars 3 stars 4 stars 5 stars
comments

Sex Supreme Tab

   
Title: Sex Supreme
Artist: Tenacious D
Tabbed By: Phil Mitchell (phil1212@hotmail.com)

intro:
E----7---7--------7-----7h8p7---7-5--5-----5---------3-------7-----
B----8-----8--------8---------8---5----5-----5---------3-------7---
G----9-------9--------9-----------6------6-----6-----------------8-
D----9----------------------------7--------------7-5-----5/9-------
A-7--7-------------------------------------------------------------
E------------------------------------------------------------------

"Here me and KG come naked..."
E------------------------------
B------------------------------
G----9-------------------------
D----9-------7-7-x-x-5-5-x-x-5-
A----7-------7-7-x-x-5-5-x-x-5-
E-0-------0--5-5-x-x-3-3-x-x-3-

(The Funky Groove to Fuck To)
E---------------------------------
B---------------------------------
G---------------------------------
D----------------------4---4b-4---
A------4---4b-4---0--0-2-0-2b-2-0-
E-0--0-2-0-2b-2-0-----------------
[ Tab from: http://www.guitartabs.cc/tabs/t/tenacious_d/sex_supreme_tab.html ]
"You step into our room..."
E-------------------------------------------------------------
B-------------------------------------------------------------
G--------------------------------0h2-x-x-2p0---2b-2b-2b-0h2p0-
D-0h2-x-x-2p0---0h2-x-2--2p0-2p0-0h2-x-x-2p0-0-2b-2b-2b-0h2p0-
A-0h2-x-x-2p0-0-0h2-x-2--2p0-2p0------------------------------
E-------------------------------------------------------------

"We DON'T mind suckin' on toes..."
E------------------------------------------------------
B--------------------------------T*-8/T--Tb-Tb-Tb--x-T-
G------9--7/9------9--7/9--------9--7/9--9b-9b-9b--x-8-
D------9--7/9------9--7/9--------7--5/7--7b-7b-7b--x-7-
A------7--5/7------7--5/7---0--0-----------------------
E-0--0--------0--0--------0----------------------------
                                  *T=10
the rest is power chords:
C               B
havin' sex with me and KG
C               B
now you're talkin' double team

supreme!
E----------------------
E----------------------
E-----3-5-7-9-10-12-14-
E-3-5-3-5-7-9-10-12-14-
E-3-5-1-3-5-7-8--10-12-
E-1-3------------------

(splooge)
Comments