Tenacious D - Rock Your Socks Off Chords & Tabs

 

Rock Your Socks Off Chords & Tabs

Tenacious D Chords & Tabs

Version: 1 Type: Bass Tab 0 ratings
1 star 2 stars 3 stars 4 stars 5 stars
comments

Rock Your Socks Off Bass Tab

Song: Rock Your Socks Off
Artist: Tenacious D
Tabbed by: Zook (burritoboy123@aol.com)

Notes: Long Live the D! 

 Verse
G----------------------------------
D----------------------------------
A----------------------------------
E-0-0-0-0-3-3-3-3-6-6-6-6-5-3-5-3--

 Chorus 1 (sorry if it looks confusing, but it does make sense!)
G--------------------------------------------
D--------------------------------------------
A-777-0-7-7-777-0-7777-777-0-7-7-777-0-7777--
E--------------------------------------------
  1   2 3 4 1   2 3&4& 1   2 3 4 1   2 3&4&

G----------------------------------------------------
D----------------------------------------------------
A-777-0-77-/12\-777-0-77-12\-777-0-7-7-0-77-0-7-07\--
E----------------------------------------------------
  1   2 3&  4   1   2 3& 4   1   2 3 4 1 2& 3 4 

G--------------------------------------
D--------------------------------------
A-0-0-0-0-22445566-7-7-5-7-7-7-5757\---
E--------------------------------------
  1 2 3 4 1&2&3&4& 1 2 3 4 1 2 &3&4&

 Chorus 2
G------------------------------------------------
D------------------------------------------------
A-777-0-7777-777-0-7777-777-0-775h77-777-0-7777--
E------------------------------------------------
  1   2 3 4  1   2 3&4& 1   2 3&4  & 1   2 3&4&
[ Tab from: http://www.guitartabs.cc/tabs/t/tenacious_d/rock_your_socks_off_btab.html ]
G----------------------------------------------------
D----------------------------------------------------
A-777-0-77-/12\-777-0-77-12\-777-0-7-7-0-77-0-7-07\--
E----------------------------------------------------
  1   2 3&  4   1   2 3& 4   1   2 3 4 1 2& 3 4 

G-------------------------------------            --------------------
D------------------------------------- play 2x    --------------------
A-0-0-0-0-22445566-7-7-5-7-7-7-5757\--  then play -7-7-5-7-7-7-5757\--
E-------------------------------------            -------------------

 Outtro
G-----------------------------------------------------------------
D--------------------------------------------------------------/--
A-7-7-7-7-7-7-7-7-7-7-7-7-7-7-7-7-7-7-7-7-7-7-7-7-7-7-7-7-7-7-7---
E-----------------------------------------------------------------

G---------------------------------------------------------------
D-/14-14-14-14-14---------14-14-14-14-14----------14------------
A---------------------------------------------------------------
E----------------12-12-12----------------12-12-12----12-12-12---

G-----------------------------------
D-14-------14-14-12-14-12-14--------
A----------------------------(12)\--
E----12-12--------------------------

G------------------------------          
D------------------------------
A-0-0-0-0-22445566-7-7-5-7-7\-- 
E------------------------------
Comments