Tenacious D - Osborne Family Show Chords & Tabs

 

Osborne Family Show Chords & Tabs

Tenacious D Chords & Tabs

Version: 1 Type: Bass Tab 0 ratings
1 star 2 stars 3 stars 4 stars 5 stars
comments

Osborne Family Show Bass Tab

this is easier and sounds better than others on site
the / means to do a finger slide to D 3

 
|1/3----3--3--3--3--5--6--6--6--6--5--5--5--5-------
|---------------------------------------------------
|---------------------------------------------------
|---------------------------------------------------

 you think you know what ozzy's thinking.....

|1/3--3--3--3--3--5--6--6--6--6--5--5--5--5---------
|---------------------------------------------------
|---------------------------------------------------
|---------------------------------------------------

 you also think you know what ozzy's drinking...
[ Tab from: http://www.guitartabs.cc/tabs/t/tenacious_d/osborne_family_show_btab.html ]
|1/3--3--3--3--3--5--6--6--6--6--5--5--5--5---------
|---------------------------------------------------
|---------------------------------------------------
|---------------------------------------------------

 you think you know but you do not know woooo

|1/3--3--3--3--3--5--6--6--6--6--5--5--5--5---------
|---------------------------------------------------
|---------------------------------------------------
|---------------------------------------------------

 this is the osborne family show woooo Yeah!
   
|1/3--3--3--3--3--5--6--6--6--6--5--5--5--5---------
|---------------------------------------------------
|---------------------------------------------------
|---------------------------------------------------

|---------------------------------------------------
|---------------------------------------------------
|---------------------------------------------------
|1/3--3--3--3--3--5--6--6--6--6--5--5--5--5---------
Comments