Tenacious D - Kielbasa Chords & Tabs

 

Kielbasa Chords & Tabs

Tenacious D Chords & Tabs

Version: 6 Type: Tab 0 ratings
1 star 2 stars 3 stars 4 stars 5 stars
comments

Kielbasa Tab

   
Kielbasa Sausage tab - Tenacious D
tabbed by Patrck D Basspro76@hotmail.com

I'm sick of seeing my favorite D song tabbed out wrong so here is the correct version. 

Intro and verse
E-----------------------------------------|
B---------------------------1---1-1-1-----|
G------3(bend)-0-3(bend)-0--0h2-0-2-0-----|
D------0-------0-0-------0--3---3-3-0h2---|
A-----------------------------------3-----|
E--3-3------------------------------------|

E----------------------------------------|
B------------------------------1---1-1-1-|
G---------------3(b)-0-3(b)-0--0h2-0-2-0-|
D-0-0h2p0-------0----0-0----0--3---3-3-0h2
A--------3-----------------------------3-|
E-----------3-3--------------------------|
[ Tab from: http://www.guitartabs.cc/tabs/t/tenacious_d/kielbasa_tab_ver_6.html ]
End verse
E----------------------------------------|
B------------------------1---1-1---------|
G------------------------0h2-0-0---------|
D------------------------3---3-0h2-------|
A--------2-2h3-2-0-2-----------3---------|
E------3-------------3-1-----------------|

Solo
E----------------------------------------|
B-/11--11-11-11-11--8h10-8---------------|
G-/12--12-12-12-12--------10-9-----------|
D-------------------------------10--8----|
A----------------------------------------|
E----------------------------------------|

E----------------------------------------|
B----------------------------------------|
G-------10-------------------------------|
D-----8------8-10b11--10b12-8------------|
A-/10-----10-----------------------------|
E----------------------------------------|

End breakdown
E----------------------------------------|
B----------------------------------------|
G-----------------5-5-5-5-5-5-5-5--------|
D-5-5-5-5-5-5-5-5-3-3-3-2-2-2-2-2--------|
A-3-3-3-2-2-2-2-2-3-3-3-3-3-3-3-3--------|
E-3-3-3-3-3-3-3-3------------------------|



End Chords (open or power, both sound good)

Em        F 
G  C  Em  F
Comments