Tenacious D - Kielbasa Chords & Tabs

 

Kielbasa Chords & Tabs

Tenacious D Chords & Tabs

Version: 4 Type: Tab 0 ratings
1 star 2 stars 3 stars 4 stars 5 stars
comments

Kielbasa Tab

   
     Tabber: The all mighty ConnoR


  e---------------------------------|
  B---------------------------------|
  G----3^-0-3^-0--2-0--0------------|
  D----0--0-0--0------3-2--0-0-2p0p2|
  A---------------------------------|
  E-33------------------------------|

  e---------------------|
  B---------------------|
  G----3^-0-3^-0--2-0-0-|
  D----0--0-0--0-----3-2|
  A---------------------|
  E-33------------------|
[ Tab from: http://www.guitartabs.cc/tabs/t/tenacious_d/kielbasa_tab_ver_4.html ]
  e-------------------------------------------------------|
  B-------------------------------------------------------|
  G----3^-0-3^-0--2-0--0---------------------------2-0--0-|
  D----0--0-0--0------3-2--0-0-2p0p2-------------------3-2|
  A-----------------------------------2-3-2-0-2-----------|
  E-33-------------------------------3---------3-1--------|
 
  I love you...
  e---------------------------------|
  B---------------------------------|
  G----3^-0-3^-0--2-0--0------------|
  D----0--0-0--0------3-2--0-0-2p0p2|
  A---------------------------------|
  E-33------------------------------|
 Kielbasa sausage...
  e---------------------|
  B---------------------|
  G----3^-0-3^-0--2-0-0-|
  D----0--0-0--0-----3-2|
  A---------------------|
  E-33------------------|
 I check the lipstick...
  e-------------------------------------------------------|
  B-------------------------------------------------------|
  G----3^-0-3^-0--2-0--0---------------------------2-0--0-|
  D----0--0-0--0------3-2--0-0-2p0p2-------------------3-2|
  A-----------------------------------2-3-2-0-2-----------|
  E-33-------------------------------3---------3-1--------|
 I see you walkin...
  e-----------------------|
  B-----------------------|
  G-----------------------|
  D-7\5-7\5--5-3-2-3-2-0-2|
  A-----------------------|
  E-----------------------|
 Diabetics...
  e-------------|
  B------3-0-3-0|
  G------3-0-3-0|
  D-5-5--0-0-0-0|
  A-5-5---------|
  E-3-3---------|

  I check the lipstick...
  e-------------------------------------------------------|
  B-------------------------------------------------------|
  G----3^-0-3^-0--2-0--0---------------------------2-0--0-|
  D----0--0-0--0------3-2--0-0-2p0p2-------------------3-2|
  A-----------------------------------2-3-2-0-2-----------|
  E-33-------------------------------3---------3-1--------|

  e----------|
  B----------|
  G-0-2-0----|
  D-------3-2|x3
  A----------|
  E----------|
(High voice) GET IT ON
  e-----------------------|
  B-----------------------|
  G-----------------------|
  D----------101010-99999-|x11
  A1010-99999-888---777777|
  E-888-77777-------------|

  e---------------|
  B---------------|
  G---------------|
  D-22222222-33333|
  A-22222222-33333|
  E-00000000-11111|

  e--------------------|
  B--------------------|
  G-----55-55-----33-33|
  D-555-55-55-333-33-33|x4
  A-555-33-33-333-11-11|
  E-333-------111------|
Comments