Tenacious D - Kielbasa Chords & Tabs

 

Kielbasa Chords & Tabs

Tenacious D Chords & Tabs

Version: 3 Type: Tab 0 ratings
1 star 2 stars 3 stars 4 stars 5 stars
comments

Kielbasa Tab

E--------------------------------------
B--------------------------1---1-1-----
G------3(bend)-0-3(bend)-0-0h2-0-0-----
D------0-------0-0-------0-3---3-0h2p0-
A--------------------------------3-----
E--3-3---------------------------------


E--------------------------------------
B--------------------------------1---1-
G------1-----3(bend)-0-3(bend)-0-0h2-0-
D---0h2------0-------0-0-------0-3---3-
A--3-----------------------------------
E--------3-3---------------------------

[ Tab from: http://www.guitartabs.cc/tabs/t/tenacious_d/kielbasa_tab_ver_3.html ]
E--------------------------------------
B--1---------------------------1---1---
G--0-------3(bend)-0-3(bend)-0-0h2-0---
D--0h2-----0-------0-0-------0-3---3---
A--3-----------------------------------
E------3-3-----------------------------


E--------------------------------------
B--1-----------------------------1---1-
G--0---------0-------------------0h2-0-
D--0h2p0--0h2--------------------3---3-
A--3-----3-------2-2h3-2---2-----------
E--------------3---------5---3-1-------


E--------------------------------------
B--1-----------------------------------
G--0-----------------------------------
D--0h2----------(Repeat once)----------
A--3-----------------------------------
E--------------------------------------
Comments