Tenacious D - Karate Chords & Tabs

 

Karate Chords & Tabs

Tenacious D Chords & Tabs

Version: 2 Type: Tab 0 ratings
1 star 2 stars 3 stars 4 stars 5 stars
comments

Karate Tab

   
      F         C               G         E            
E||---1----1--1-0---0--0--0--|--3----3--3-0---0--0----|
B||---1----1--1-1---1--1--1--|--0----0--0-0---0--0----|
G||*--2----2--2-0---0--0--0--|--0----0--0-1---1--1----|
D||*--3----3--3-2---2--2--2--|--0----0--0-2---2--2----|
A||---3----3--3-3---3--3--3--|--x----x--x-2---2--2----|
E||---1----1--1--------------|--3----3--3-0---0--0----|


  F         C               G         E            F         C             
--1----1--1-0---0--0--0--|--3----3--3-0---------|--1----1--1-0---0--0--0--|
--1----1--1-1---1--1--1--|--0----0--0-0---------|--1----1--1-1---1--1--1--|
--2----2--2-0---0--0--0--|--0----0--0-1---------|--2----2--2-0---0--0--0--|
--3----3--3-2---2--2--2--|--0----0--0-2---------|--3----3--3-2---2--2--2--|
--3----3--3-3---3--3--3--|--x----x--x-2---------|--3----3--3-3---3--3--3--|
--1----1--1--------------|--3----3--3-0---------|--1----1--1--------------|

[ Tab from: http://www.guitartabs.cc/tabs/t/tenacious_d/karate_tab_ver_2.html ]
  G         E              F         C               G         E            
--3----3--3-0---0--0----|--1----1--1-0---0--0--0--|--3----3--3-0---0--0----|
--0----0--0-0---0--0----|--1----1--1-1---1--1--1--|--0----0--0-0---0--0----|
--0----0--0-1---1--1----|--2----2--2-0---0--0--0--|--0----0--0-1---1--1----|
--0----0--0-2---2--2----|--3----3--3-2---2--2--2--|--0----0--0-2---2--2----|
--x----x--x-2---2--2----|--3----3--3-3---3--3--3--|--x----x--x-2---2--2----|
--3----3--3-0---0--0----|--1----1--1--------------|--3----3--3-0---0--0----|


  F         C               G         E            
--1----1--1-0---0--0--0--|--3----3--3-0---0--0----|
--1----1--1-1---1--1--1--|--0----0--0-0---0--0----|
--2----2--2-0---0--0--0--|--0----0--0-1---1--1----|
--3----3--3-2---2--2--2--|--0----0--0-2---2--2----|
--3----3--3-3---3--3--3--|--x----x--x-2---2--2----|
--1----1--1--------------|--3----3--3-0---0--0----|


                                                                
----------------------------------|---------------------------||
----1-----1-----1---1---1---1---1-|---------------------------||
------2-----2---------0-------0---|----0-----0-----1---------*||
--3-----3-----3-------------------|------0-----0---2---------*||
------------------3-------3-------|----------------2----------||
----------------------------------|--3-----3-----3-0----------||


  G         E                                
--3----3--3-0---0--0----|------------------||
--0----0--0-0---0--0----|------------------||
--0----0--0-1---1--1----|------------------||
--0----0--0-2---2--2----|------------------||
--x----x--x-2---2--2----|------------------||
--3----3--3-0---0--0----|------------------||
Comments