Tenacious D - Jesus Ranch Chords & Tabs

 

Tenacious D Chords & Tabs

Version: 1 Type: Tab 0 ratings
1 star 2 stars 3 stars 4 stars 5 stars
comments

Jesus Ranch Tab

   
Tenacious D
Jesus Ranch
Tabs by Travis Stone
E-mail: MaggotP@aol.com

Intro
Not very sure but this sounds right...  play a few times
E---------------------------------|
B-----2-------2-------------------|
G-----2-------2----2~~3-0---------|
D-----4-------2----2~~3-0---------|
A-2-2-----0-0------2~~3-0---------|
E---------------------------------|

Main
E---------------------------------|
B---------------------------------|
G---------------------------------|
D-2-2-X-3-3-3-3-3-3/5-5-5---------|
A-2-2-X-2-2-2-2-2-2/4-4-4-4-4-4-4-|
E-------------------------2-2-2-2-|

(You'll have to slow down and play the same notes longer
in some parts)
[ Tab from: http://www.guitartabs.cc/tabs/t/tenacious_d/jesus_ranch_tab.html ]
end
E---------------------------------|
B------------------------------5--|
G------------------------------5--|
D-------2-2-2-3-3-3/-5-5-5-5-5-5--|
A-4-4-4-2-2-2-2-2-2/-4-4-4-4-4-4--|
E-2-2-2---------------------------|


****************HOLD***************
E---------7-----------------------|
B-------7-------------------------|
G-----7---------------------------|
D---9-----------------------------|
A---------------------------------|
E---------------------------------|OK that's it for now! A few parts you'll have to listen to the
song to get.  If you have anything to add E-mail me! This isnt
a hard song at all! For more info on me visit my web page at
http://chaosmaggot.freeservers.com
http://asfburner.freeservers.com
Comments