Tenacious D - Fuck Her Gently Chords & Tabs

 

Tenacious D Chords & Tabs

Version: 1 Type: Tab 3 ratings
1 star 2 stars 3 stars 4 stars 5 stars
comments

Fuck Her Gently Tab

   
Tenacious D
Song: F**k her gently
Album: Tenacious D
Tabbed by: Me!!!
Tuning: Standard tuning

Verse:

e----2-----2-------5-----5-------3-----3------0--------e
b------3-----3-------7-----7-------5-----5----2--------b
g--------2-----2-------6-----6-------4-----4--2--------g
D-0--------------4-------------2--------------2--------D
A----------------------------------------------0-------A
E------------------------------------------------------E

[ Tab from: http://www.guitartabs.cc/tabs/t/tenacious_d/fuck_her_gently_tab.html ]
e----2-----2-------5-----5-------3-----3-------------------------e
b------3-----3-------7-----7-------5-----5----------2-3p2--------b
g--------2-----2-------6-----6-------4-----4------2--------2-----g
D-0--------------4-------------2----------------2-------------2--D
A----------------------------------------------0-----------------A
E----------------------------------------------------------------E


e----2-----2-------5-----5-------3-----3------------------e
b------3-----3-------7-----7-------5-----5----------3-2---b
g--------2-----2-------6-----6-------4-----4------2-2-2---g
D-0--------------4-------------2----------------2---------D
A----------------------------------------------0----------A
E---------------------------------------------------------E

Chords:

Bm  G  Bm  G  Em  A

The whole song is basicly just this all the way through. 
You will have to listen to the song to get the order of 
how it goes.
Comments