Tenacious D - Fuck Her Gently Chords & Tabs

 

Fuck Her Gently Chords & Tabs

Tenacious D Chords & Tabs

Version: 1 Type: Bass Tab 0 ratings
1 star 2 stars 3 stars 4 stars 5 stars
comments

Fuck Her Gently Bass Tab

   
Verse: (You don't always have to fuck her hard)
G|---------|
D|-0-4-2---|
A|-------0-| (x2)
E|---------|

Refrain: (Sometimes you've got to squeeze)
G|---------|-----|
D|---------|-0---|
A|-2---2---|---0-|
E|---3---3-|-----|

Verse: (I'm gonna fuck you softly)
G|---------|
D|-0-4-2---|
A|-------0-| (x2)
E|---------|
[ Tab from: http://www.guitartabs.cc/tabs/t/tenacious_d/fuck_her_gently_btab.html ]
Refrain: (And then you say hey I bought you flowers)
G|---------|---------|
D|-----0---|---------|
A|-2-----0-|-2-----0-|
E|---3-----|---3-0---|

Verse: (What's your favorite dish)
G|---------|
D|-0-4-2---|
A|-------0-| (x2)
E|---------|

Refrain: (And then I'm gonna love you completely)
G|---------|----------|---------|
D|-----0---|------4-2-|-------0-|
A|-2-----0-|-2--------|-0-3-----|
E|---3-----|---3------|-----3---|

Outro: (Har~ar~ard)
G|------|
D|------|
A|-1-3-5|
E|------|
Comments