Tenacious D - Friendship Chords & Tabs

 

Friendship Chords & Tabs

Tenacious D Chords & Tabs

Version: 1 Type: Tab 0 ratings
1 star 2 stars 3 stars 4 stars 5 stars
comments

Friendship Tab

------------------------------------------------------------
			     FRIENDSHIP - Tenacious D
------------------------------------------------------------

By: calumneil@hotmail.com
[ Tab from: http://www.guitartabs.cc/tabs/t/tenacious_d/friendship_tab.html ]
e|----------------------------------------------------|
B|-7----4---------------------------------------------|
G|-8----5---------------------------9-----------------|
D|-9----6-----------------------7---9--9--------------|
A|-9----6-----------------------7---7--9--------------|
E|-7----4-----------------------5------7--------------|
 "friendship is rare.."

e|---------------------------------------------------------|
B|----9---10-----------------------------------------------|
G|----9---9------------------------------------------------|
D|----9---9---------9---8--------------11-----13-----------|
A|------------------9---8--------------11-----14-----------|
E|------------------7---6---------------9-----12-----------|
done!!.... Go Home!!
Comments