Tenacious D - Double Team Chords & Tabs

 

Double Team Chords & Tabs

Tenacious D Chords & Tabs

Version: 1 Type: Tab 3 ratings
1 star 2 stars 3 stars 4 stars 5 stars
comments

Double Team Tab

Double Team
Tabbed by: Eric  [zoso632@yahoo.com]
Note:  Listen to the song to know how much
       to repeat a riff
Intro
E|------------------7--------------------------------|
B|---------------8--8--------------------------------|
G|---------------9--9--------------------------------|
D|---------------9-----------------------------------|
A|---5-slide->7--7-----------------------------------|
E|---------------------------------------------------|

E|--------------7------7-----------------------------|
B|----------------5------5---------------------------|
G|---4-slide->5-----5------5-------------------------|
D|---------------------------------------------------|
A|---------------------------------------------------|
E|---------------------------------------------------|

E|----5------5--------3--------7---------------------|
B|------5------5--------3--------7-------------------|
G|---2----2------2--0-----0--4-----------------------|
D|---------------------------------------------------|
A|---------------------------------------------------|
E|---------------------------------------------------|
Repeat, then:       x4 x4 x2
E|---------------7---8--6--3--7----------------------|
B|---------------8---8--5--3--7----------------------|
G|---------------9---9--6--4--8----------------------|
D|---------------9--10--7--5--9----------------------|
A|---5-slide->7--7--10--7--5--9----------------------|
E|------------------8---5--3--7----------------------|
    x4  x4 
E|------6--5--3--------------------------------------|
B|------6--5--3--------------------------------------|
G|------7--6--4--------------------------------------|
D|---2--8--7--5--------------------------------------|
A|---2--8--7--5--------------------------------------|
E|---0--6--5--3--------------------------------------|
Repeat then,
E|---------------------------------------------------|
B|---------------------------------------------------|
G|-----------2--2--4--4--4---------------------------|
D|--2--2--4--2--2--4--4--4--[play twice]-------------|
A|--2--2--4--0--0--2--3--2---------------------------|
E|--0--0--2------------------------------------------|
[ Tab from: http://www.guitartabs.cc/tabs/t/tenacious_d/double_team_tab.html ]
E|---------------------------------------------------|
B|---------------------------------------------------|
G|---------------------------------------------------|
D|---0h2--0h2--0h2--0h2--0h2-------------------------|
A|---0h2--0h2--0h2--0h2--0h2-------------------------|
E|---------------------------------------------------|

E|---------------------------------------------------|
B|---------------------------------------------------|
G|---0h2--0h2--2--2h3333--2--0-----------------------|
D|---0h2--0h2--2--2-2222--2--0-----------------------|
A|---------------------------------------------------|
E|---------------------------------------------------|
Repeat through most of the song till,
E|-----2---------------------------------------------|
B|-----3---------------------------------------------|
G|-----2---------------------------------------------|
D|--2--0-x4------------------------------------------|
A|--2------------------------------------------------|
E|--0-x4---------------------------------------------|
"Having sex with me and KG...":
E|---------------------------------------------------|
B|---------------------------------------------------|
G|---5-----4-----------------------------------------|
D|---5-----4--------------repeat twice---------------|
A|---3-x4--2-x4--------------------------------------|
E|---------------------------------------------------|
"Lets go!" GUITAR 1:
E|--2-----------3------------------------------------|
B|--3-----1-----0------------------------------------|
G|--2-----0-----0------------------------------------|
D|--0-x4--2-----0---------repeat twice---------------|
A|--------3-x3--2-x3---------------------------------|
E|--------------3------------------------------------|
GUITAR 2:
E|---2----3------------------------------------------|
B|---3----3------------------------------------------|
G|---2----2---------------repeat twice---------------|
D|---0-x4-0-x6---------------------------------------|
A|---------------------------------------------------|
E|---------------------------------------------------|

E|---------------------------------------------------|
B|---------------------------------------------------|
G|---3-----5-----8-----10-----13--15-----------------|
D|---3-----5-----8-----10-----13--15-----------------|
A|---1-x4--3-x4--6-x4--8--x4--11--13-x8--------------|
E|---------------------------------------------------|
"What? Yeah!..."
E|---------------------------------------------------|
B|---------------------------------------------------|
G|---7-----------------------------------------------|
D|---7-----ring out on last strum--------------------|
A|---5-x5--------------------------------------------|
E|---------------------------------------------------|
Comments