Tenacious D - City Hall Chords & Tabs

 

City Hall Chords & Tabs

Tenacious D Chords & Tabs

Version: 1 Type: Tab 4 ratings
1 star 2 stars 3 stars 4 stars 5 stars
comments

City Hall Tab

e|---------------------------------------------------------------------------|
B|---5---------5---------5---------------------------------------------------|
G|---4----4----4----4----4----4----------------------------------------------|
D|---2----4----2----4----2----4----------------------------------------------|
A|--------2---------2---------2----------------------------------------------|
E|---------------------------------------------------------------------------|

e|---------------------------------------------------------------------------|
B|---------------------------------------------------------------------------|
G|---------------------------------------------------------------------------|
D|---7-7-7-7-7-7-7-7--6-7-6-7-6-7-6-7-6-7-6-7-6------------------------------|
A|---7-7-7-7-7-7-7-7--6-7-6-7-6-7-6-7-6-7-6-7-6------------------------------|
E|---5-5-5-5-5-5-5-5--4-5-4-5-4-5-4-5-4-5-4-5-4------------------------------|
[ Tab from: http://www.guitartabs.cc/tabs/t/tenacious_d/city_hall_tab.html ]
e|---------------------------------------------------------------------------|
B|---5-5-X-X-X-X-5-5---1-1-X-X-X-X-3-3---------------------------------------|
G|---6-6-X-X-X-X-6-6---2-2-X-X-X-X-4-4---------------------------------------|
D|---7-7-X-X-X-X-7-7---3-3-X-X-X-X-5-5---------------------------------------|
A|---7-7-X-X-X-X-7-7---3-3-X-X-X-X-5-5---------------------------------------|
E|---5-5-X-X-X-X-5-5---1-1-X-X-X-X-3-3---------------------------------------|
 
e|---------------------1-(1)-------------------------------------------------|
B|---5-5-X-X-X-X-5-5---1-(1)-X-X-X-X-3-3-------------------------------------|
G|---6-6-X-X-X-X-6-6---2-(2)-X-X-X-X-4-4-------------------------------------|
D|---7-7-X-X-X-X-7-7---3-(3)-X-X-X-X-5-5-------------------------------------|
A|---7-7-X-X-X-X-7-7---------X-X-X-X-5-5-------------------------------------|
E|---5-5-X-X-X-X-5-5---------X-X-X-X-3-3-------------------------------------|

e|---------------------------------------------------------------------------|
B|-------------------------------------------------------5-6-5---------------|
G|---------6/76---------------------------------6/76-----------7-~5--------|
D|-------7---------7-8-7-8-8/108--------------7---------------7-------------|
A|-----7--------------------------8----------7-------------------------------|
E|---5------------------------------8------5---------------------------------|
Comments