Ten Years After - Let The Sky Fall Chords & Tabs

 

Let The Sky Fall Chords & Tabs

Ten Years After Chords & Tabs

Version: 1 Type: Bass Tab 0 ratings
1 star 2 stars 3 stars 4 stars 5 stars
comments

Let The Sky Fall Bass Tab

Let The Sky Fall - Ten Years After
[ Tab from: http://www.guitartabs.cc/tabs/t/ten_years_after/let_the_sky_fall_btab.html ]
  verse riff (x6)               interlude (x2)
G|-----------------------------|----------------|
D|---------------577775--------|5---------------|
A|577775---------------75--5---|--5-----5---7---|
E|------753-0-5----------57-0--|----5-----5-----|

  solo root notes (x4)
G|--------------------|
D|--------------------|
A|7----5---------7----|
E|----------5---------|

A tab by Achilles (blue_sincere@hotmail.com)

Comments